ISO-10303-21;
HEADER;
/* Generated by software containing ST-Developer
 * from STEP Tools, Inc. (www.steptools.com) 
 */
/* OPTION: using custom schema-name function */

FILE_DESCRIPTION(
/* description */ (''),
/* implementation_level */ '2;1');

FILE_NAME(
/* name */ 'CC060208N.stp',
/* time_stamp */ '2021-11-11T11:52:02+09:00',
/* author */ (''),
/* organization */ (''),
/* preprocessor_version */ 'ST-DEVELOPER v16',
/* originating_system */ 'SIEMENS PLM Software NX 10.0',
/* authorisation */ '');

FILE_SCHEMA (('AUTOMOTIVE_DESIGN { 1 0 10303 214 3 1 1 1 }'));
ENDSEC;

DATA;
#10=CONSTRUCTIVE_GEOMETRY_REPRESENTATION_RELATIONSHIP(
'supplemental geometry','',#26,#11);
#11=CONSTRUCTIVE_GEOMETRY_REPRESENTATION('supplemental geometry',(#385,
#386,#387),#623);
#12=GEOMETRICALLY_BOUNDED_WIREFRAME_SHAPE_REPRESENTATION(
'CC060208N-None',(#27),#623);
#13=SHAPE_REPRESENTATION_RELATIONSHIP('None',
'relationship between CC060208N-None and CC060208N-None',#26,#15);
#14=SHAPE_REPRESENTATION_RELATIONSHIP('None',
'relationship between CC060208N-None and CC060208N-None',#26,#12);
#15=ADVANCED_BREP_SHAPE_REPRESENTATION('CC060208N-None',(#33),#623);
#16=SHAPE_DEFINITION_REPRESENTATION(#17,#26);
#17=PRODUCT_DEFINITION_SHAPE('','',#18);
#18=PRODUCT_DEFINITION('part definition','',#20,#19);
#19=PRODUCT_DEFINITION_CONTEXT('part definition',#25,'design');
#20=PRODUCT_DEFINITION_FORMATION_WITH_SPECIFIED_SOURCE(' ',' ',#22,
 .NOT_KNOWN.);
#21=PRODUCT_RELATED_PRODUCT_CATEGORY('part','',(#22));
#22=PRODUCT('CC060208L','CC060208L','NOT SPECIFIED',(#23));
#23=PRODUCT_CONTEXT('',#25,'mechanical');
#24=APPLICATION_PROTOCOL_DEFINITION('international standard',
'automotive_design',2010,#25);
#25=APPLICATION_CONTEXT(
'core data for automotive mechanical design processes');
#26=SHAPE_REPRESENTATION('CC060208N-None',(#380),#623);
#27=GEOMETRIC_CURVE_SET('None',(#531,#532,#287,#288,#289,#290,#291,#292,
#293,#294));
#28=SURFACE_STYLE_USAGE(.BOTH.,#29);
#29=SURFACE_SIDE_STYLE('',(#30));
#30=SURFACE_STYLE_FILL_AREA(#31);
#31=FILL_AREA_STYLE('',(#32));
#32=FILL_AREA_STYLE_COLOUR('',#242);
#33=MANIFOLD_SOLID_BREP('',#34);
#34=CLOSED_SHELL('',(#59,#60,#61,#62,#63,#64,#65,#66,#67,#68,#69,#70,#71,
#72,#73,#74));
#35=TOROIDAL_SURFACE('',#417,3.9,2.5);
#36=TOROIDAL_SURFACE('',#419,3.9,2.5);
#37=CYLINDRICAL_SURFACE('',#411,1.4);
#38=CYLINDRICAL_SURFACE('',#413,1.4);
#39=CYLINDRICAL_SURFACE('',#420,1.875);
#40=CYLINDRICAL_SURFACE('',#421,1.875);
#41=CONICAL_SURFACE('',#397,0.6538863725255,7.);
#42=CONICAL_SURFACE('',#404,0.6538863725255,7.);
#43=CONICAL_SURFACE('',#406,0.6538863725255,7.);
#44=CONICAL_SURFACE('',#408,0.6538863725255,7.);
#45=FACE_OUTER_BOUND('',#87,.T.);
#46=FACE_OUTER_BOUND('',#88,.T.);
#47=FACE_OUTER_BOUND('',#91,.T.);
#48=FACE_OUTER_BOUND('',#92,.T.);
#49=FACE_OUTER_BOUND('',#93,.T.);
#50=FACE_OUTER_BOUND('',#94,.T.);
#51=FACE_OUTER_BOUND('',#95,.T.);
#52=FACE_OUTER_BOUND('',#96,.T.);
#53=FACE_OUTER_BOUND('',#97,.T.);
#54=FACE_OUTER_BOUND('',#98,.T.);
#55=FACE_OUTER_BOUND('',#99,.T.);
#56=FACE_OUTER_BOUND('',#100,.T.);
#57=FACE_OUTER_BOUND('',#101,.T.);
#58=FACE_OUTER_BOUND('',#102,.T.);
#59=ADVANCED_FACE('',(#81,#82),#75,.T.);
#60=ADVANCED_FACE('',(#45),#76,.T.);
#61=ADVANCED_FACE('',(#46),#41,.T.);
#62=ADVANCED_FACE('',(#83,#84),#77,.F.);
#63=ADVANCED_FACE('',(#47),#42,.T.);
#64=ADVANCED_FACE('',(#48),#78,.T.);
#65=ADVANCED_FACE('',(#49),#43,.T.);
#66=ADVANCED_FACE('',(#50),#79,.T.);
#67=ADVANCED_FACE('',(#51),#44,.T.);
#68=ADVANCED_FACE('',(#52),#80,.T.);
#69=ADVANCED_FACE('',(#53),#37,.F.);
#70=ADVANCED_FACE('',(#54),#38,.F.);
#71=ADVANCED_FACE('',(#55),#35,.T.);
#72=ADVANCED_FACE('',(#56),#36,.T.);
#73=ADVANCED_FACE('',(#57),#39,.F.);
#74=ADVANCED_FACE('',(#58),#40,.F.);
#75=PLANE('',#394);
#76=PLANE('',#395);
#77=PLANE('',#403);
#78=PLANE('',#405);
#79=PLANE('',#407);
#80=PLANE('',#409);
#81=FACE_BOUND('',#85,.T.);
#82=FACE_BOUND('',#86,.T.);
#83=FACE_BOUND('',#89,.T.);
#84=FACE_BOUND('',#90,.T.);
#85=EDGE_LOOP('',(#103,#104,#105,#106,#107,#108,#109,#110));
#86=EDGE_LOOP('',(#111,#112));
#87=EDGE_LOOP('',(#113,#114,#115,#116));
#88=EDGE_LOOP('',(#117,#118,#119,#120));
#89=EDGE_LOOP('',(#121,#122,#123,#124,#125,#126,#127,#128));
#90=EDGE_LOOP('',(#129,#130));
#91=EDGE_LOOP('',(#131,#132,#133,#134));
#92=EDGE_LOOP('',(#135,#136,#137,#138));
#93=EDGE_LOOP('',(#139,#140,#141,#142));
#94=EDGE_LOOP('',(#143,#144,#145,#146));
#95=EDGE_LOOP('',(#147,#148,#149,#150));
#96=EDGE_LOOP('',(#151,#152,#153,#154));
#97=EDGE_LOOP('',(#155,#156,#157,#158));
#98=EDGE_LOOP('',(#159,#160,#161,#162));
#99=EDGE_LOOP('',(#163,#164,#165,#166));
#100=EDGE_LOOP('',(#167,#168,#169,#170));
#101=EDGE_LOOP('',(#171,#172,#173,#174));
#102=EDGE_LOOP('',(#175,#176,#177,#178));
#103=ORIENTED_EDGE('',*,*,#203,.F.);
#104=ORIENTED_EDGE('',*,*,#204,.F.);
#105=ORIENTED_EDGE('',*,*,#205,.F.);
#106=ORIENTED_EDGE('',*,*,#206,.F.);
#107=ORIENTED_EDGE('',*,*,#207,.F.);
#108=ORIENTED_EDGE('',*,*,#208,.F.);
#109=ORIENTED_EDGE('',*,*,#209,.F.);
#110=ORIENTED_EDGE('',*,*,#210,.F.);
#111=ORIENTED_EDGE('',*,*,#211,.F.);
#112=ORIENTED_EDGE('',*,*,#212,.F.);
#113=ORIENTED_EDGE('',*,*,#213,.T.);
#114=ORIENTED_EDGE('',*,*,#214,.T.);
#115=ORIENTED_EDGE('',*,*,#210,.T.);
#116=ORIENTED_EDGE('',*,*,#215,.T.);
#117=ORIENTED_EDGE('',*,*,#209,.T.);
#118=ORIENTED_EDGE('',*,*,#216,.F.);
#119=ORIENTED_EDGE('',*,*,#217,.T.);
#120=ORIENTED_EDGE('',*,*,#215,.F.);
#121=ORIENTED_EDGE('',*,*,#217,.F.);
#122=ORIENTED_EDGE('',*,*,#218,.F.);
#123=ORIENTED_EDGE('',*,*,#219,.F.);
#124=ORIENTED_EDGE('',*,*,#220,.F.);
#125=ORIENTED_EDGE('',*,*,#221,.F.);
#126=ORIENTED_EDGE('',*,*,#222,.F.);
#127=ORIENTED_EDGE('',*,*,#223,.F.);
#128=ORIENTED_EDGE('',*,*,#213,.F.);
#129=ORIENTED_EDGE('',*,*,#224,.F.);
#130=ORIENTED_EDGE('',*,*,#225,.F.);
#131=ORIENTED_EDGE('',*,*,#223,.T.);
#132=ORIENTED_EDGE('',*,*,#226,.F.);
#133=ORIENTED_EDGE('',*,*,#203,.T.);
#134=ORIENTED_EDGE('',*,*,#214,.F.);
#135=ORIENTED_EDGE('',*,*,#222,.T.);
#136=ORIENTED_EDGE('',*,*,#227,.T.);
#137=ORIENTED_EDGE('',*,*,#204,.T.);
#138=ORIENTED_EDGE('',*,*,#226,.T.);
#139=ORIENTED_EDGE('',*,*,#221,.T.);
#140=ORIENTED_EDGE('',*,*,#228,.F.);
#141=ORIENTED_EDGE('',*,*,#205,.T.);
#142=ORIENTED_EDGE('',*,*,#227,.F.);
#143=ORIENTED_EDGE('',*,*,#206,.T.);
#144=ORIENTED_EDGE('',*,*,#228,.T.);
#145=ORIENTED_EDGE('',*,*,#220,.T.);
#146=ORIENTED_EDGE('',*,*,#229,.T.);
#147=ORIENTED_EDGE('',*,*,#219,.T.);
#148=ORIENTED_EDGE('',*,*,#230,.F.);
#149=ORIENTED_EDGE('',*,*,#207,.T.);
#150=ORIENTED_EDGE('',*,*,#229,.F.);
#151=ORIENTED_EDGE('',*,*,#208,.T.);
#152=ORIENTED_EDGE('',*,*,#230,.T.);
#153=ORIENTED_EDGE('',*,*,#218,.T.);
#154=ORIENTED_EDGE('',*,*,#216,.T.);
#155=ORIENTED_EDGE('',*,*,#231,.F.);
#156=ORIENTED_EDGE('',*,*,#232,.T.);
#157=ORIENTED_EDGE('',*,*,#233,.T.);
#158=ORIENTED_EDGE('',*,*,#225,.T.);
#159=ORIENTED_EDGE('',*,*,#233,.F.);
#160=ORIENTED_EDGE('',*,*,#234,.T.);
#161=ORIENTED_EDGE('',*,*,#231,.T.);
#162=ORIENTED_EDGE('',*,*,#224,.T.);
#163=ORIENTED_EDGE('',*,*,#235,.F.);
#164=ORIENTED_EDGE('',*,*,#236,.F.);
#165=ORIENTED_EDGE('',*,*,#234,.F.);
#166=ORIENTED_EDGE('',*,*,#237,.T.);
#167=ORIENTED_EDGE('',*,*,#232,.F.);
#168=ORIENTED_EDGE('',*,*,#236,.T.);
#169=ORIENTED_EDGE('',*,*,#238,.F.);
#170=ORIENTED_EDGE('',*,*,#237,.F.);
#171=ORIENTED_EDGE('',*,*,#239,.T.);
#172=ORIENTED_EDGE('',*,*,#238,.T.);
#173=ORIENTED_EDGE('',*,*,#240,.F.);
#174=ORIENTED_EDGE('',*,*,#212,.T.);
#175=ORIENTED_EDGE('',*,*,#240,.T.);
#176=ORIENTED_EDGE('',*,*,#235,.T.);
#177=ORIENTED_EDGE('',*,*,#239,.F.);
#178=ORIENTED_EDGE('',*,*,#211,.T.);
#179=VERTEX_POINT('',#545);
#180=VERTEX_POINT('',#546);
#181=VERTEX_POINT('',#548);
#182=VERTEX_POINT('',#550);
#183=VERTEX_POINT('',#552);
#184=VERTEX_POINT('',#554);
#185=VERTEX_POINT('',#556);
#186=VERTEX_POINT('',#558);
#187=VERTEX_POINT('',#561);
#188=VERTEX_POINT('',#562);
#189=VERTEX_POINT('',#566);
#190=VERTEX_POINT('',#567);
#191=VERTEX_POINT('',#572);
#192=VERTEX_POINT('',#576);
#193=VERTEX_POINT('',#578);
#194=VERTEX_POINT('',#580);
#195=VERTEX_POINT('',#582);
#196=VERTEX_POINT('',#584);
#197=VERTEX_POINT('',#587);
#198=VERTEX_POINT('',#588);
#199=VERTEX_POINT('',#603);
#200=VERTEX_POINT('',#605);
#201=VERTEX_POINT('',#611);
#202=VERTEX_POINT('',#612);
#203=EDGE_CURVE('',#179,#180,#247,.T.);
#204=EDGE_CURVE('',#181,#179,#299,.T.);
#205=EDGE_CURVE('',#182,#181,#248,.T.);
#206=EDGE_CURVE('',#183,#182,#300,.T.);
#207=EDGE_CURVE('',#184,#183,#249,.T.);
#208=EDGE_CURVE('',#185,#184,#301,.T.);
#209=EDGE_CURVE('',#186,#185,#250,.T.);
#210=EDGE_CURVE('',#180,#186,#302,.T.);
#211=EDGE_CURVE('',#187,#188,#251,.T.);
#212=EDGE_CURVE('',#188,#187,#252,.T.);
#213=EDGE_CURVE('',#189,#190,#303,.T.);
#214=EDGE_CURVE('',#190,#180,#304,.T.);
#215=EDGE_CURVE('',#186,#189,#305,.T.);
#216=EDGE_CURVE('',#191,#185,#306,.T.);
#217=EDGE_CURVE('',#191,#189,#253,.T.);
#218=EDGE_CURVE('',#192,#191,#307,.T.);
#219=EDGE_CURVE('',#193,#192,#254,.T.);
#220=EDGE_CURVE('',#194,#193,#308,.T.);
#221=EDGE_CURVE('',#195,#194,#255,.T.);
#222=EDGE_CURVE('',#196,#195,#309,.T.);
#223=EDGE_CURVE('',#190,#196,#256,.T.);
#224=EDGE_CURVE('',#197,#198,#257,.T.);
#225=EDGE_CURVE('',#198,#197,#258,.T.);
#226=EDGE_CURVE('',#179,#196,#310,.T.);
#227=EDGE_CURVE('',#195,#181,#311,.T.);
#228=EDGE_CURVE('',#182,#194,#312,.T.);
#229=EDGE_CURVE('',#193,#183,#313,.T.);
#230=EDGE_CURVE('',#184,#192,#314,.T.);
#231=EDGE_CURVE('',#199,#197,#315,.T.);
#232=EDGE_CURVE('',#199,#200,#259,.T.);
#233=EDGE_CURVE('',#200,#198,#316,.T.);
#234=EDGE_CURVE('',#200,#199,#260,.T.);
#235=EDGE_CURVE('',#201,#202,#261,.T.);
#236=EDGE_CURVE('',#199,#201,#262,.T.);
#237=EDGE_CURVE('',#200,#202,#263,.T.);
#238=EDGE_CURVE('',#202,#201,#264,.T.);
#239=EDGE_CURVE('',#187,#202,#317,.T.);
#240=EDGE_CURVE('',#188,#201,#318,.T.);
#241=COLOUR_RGB('Strong Stone',0.576470588235294,0.54508278019379,0.392156862745098);
#242=COLOUR_RGB('cutting part',0.8,0.8,0.8);
#243=CIRCLE('',#381,0.8);
#244=CIRCLE('',#382,0.8);
#245=CIRCLE('',#383,0.8);
#246=CIRCLE('',#384,0.8);
#247=CIRCLE('',#388,0.8);
#248=CIRCLE('',#389,0.8);
#249=CIRCLE('',#390,0.8);
#250=CIRCLE('',#391,0.8);
#251=CIRCLE('',#392,1.875);
#252=CIRCLE('',#393,1.875);
#253=CIRCLE('',#396,0.507772745051);
#254=CIRCLE('',#398,0.507772745051);
#255=CIRCLE('',#399,0.507772745051);
#256=CIRCLE('',#400,0.507772745051);
#257=CIRCLE('',#401,1.4);
#258=CIRCLE('',#402,1.4);
#259=CIRCLE('',#410,1.4);
#260=CIRCLE('',#412,1.4);
#261=CIRCLE('',#414,1.875);
#262=CIRCLE('',#415,2.5);
#263=CIRCLE('',#416,2.5);
#264=CIRCLE('',#418,1.875);
#265=CURVE_STYLE('',#276,POSITIVE_LENGTH_MEASURE(0.18),#379);
#266=CURVE_STYLE('',#277,POSITIVE_LENGTH_MEASURE(0.18),#379);
#267=CURVE_STYLE('',#278,POSITIVE_LENGTH_MEASURE(0.18),#379);
#268=CURVE_STYLE('',#279,POSITIVE_LENGTH_MEASURE(0.18),#379);
#269=CURVE_STYLE('',#280,POSITIVE_LENGTH_MEASURE(0.18),#379);
#270=CURVE_STYLE('',#281,POSITIVE_LENGTH_MEASURE(0.18),#379);
#271=CURVE_STYLE('',#282,POSITIVE_LENGTH_MEASURE(0.18),#379);
#272=CURVE_STYLE('',#283,POSITIVE_LENGTH_MEASURE(0.18),#379);
#273=CURVE_STYLE('',#284,POSITIVE_LENGTH_MEASURE(0.13),#378);
#274=CURVE_STYLE('',#285,POSITIVE_LENGTH_MEASURE(0.13),#378);
#275=CURVE_STYLE('',#286,POSITIVE_LENGTH_MEASURE(0.13),#241);
#276=DRAUGHTING_PRE_DEFINED_CURVE_FONT('continuous');
#277=DRAUGHTING_PRE_DEFINED_CURVE_FONT('continuous');
#278=DRAUGHTING_PRE_DEFINED_CURVE_FONT('continuous');
#279=DRAUGHTING_PRE_DEFINED_CURVE_FONT('continuous');
#280=DRAUGHTING_PRE_DEFINED_CURVE_FONT('continuous');
#281=DRAUGHTING_PRE_DEFINED_CURVE_FONT('continuous');
#282=DRAUGHTING_PRE_DEFINED_CURVE_FONT('continuous');
#283=DRAUGHTING_PRE_DEFINED_CURVE_FONT('continuous');
#284=DRAUGHTING_PRE_DEFINED_CURVE_FONT('continuous');
#285=DRAUGHTING_PRE_DEFINED_CURVE_FONT('continuous');
#286=DRAUGHTING_PRE_DEFINED_CURVE_FONT('continuous');
#287=TRIMMED_CURVE('',#295,(PARAMETER_VALUE(0.)),(PARAMETER_VALUE(1.)),
 .T.,.PARAMETER.);
#288=TRIMMED_CURVE('',#296,(PARAMETER_VALUE(0.)),(PARAMETER_VALUE(1.)),
 .T.,.PARAMETER.);
#289=TRIMMED_CURVE('',#297,(PARAMETER_VALUE(0.)),(PARAMETER_VALUE(1.)),
 .T.,.PARAMETER.);
#290=TRIMMED_CURVE('',#298,(PARAMETER_VALUE(0.)),(PARAMETER_VALUE(1.)),
 .T.,.PARAMETER.);
#291=TRIMMED_CURVE('',#243,(PARAMETER_VALUE(0.)),(PARAMETER_VALUE(100.0000000003)),
 .T.,.PARAMETER.);
#292=TRIMMED_CURVE('',#244,(PARAMETER_VALUE(0.)),(PARAMETER_VALUE(80.00000000022)),
 .T.,.PARAMETER.);
#293=TRIMMED_CURVE('',#245,(PARAMETER_VALUE(0.)),(PARAMETER_VALUE(100.0000000003)),
 .T.,.PARAMETER.);
#294=TRIMMED_CURVE('',#246,(PARAMETER_VALUE(0.)),(PARAMETER_VALUE(80.00000000022)),
 .T.,.PARAMETER.);
#295=LINE('',#533,#319);
#296=LINE('',#534,#320);
#297=LINE('',#535,#321);
#298=LINE('',#536,#322);
#299=LINE('',#547,#323);
#300=LINE('',#551,#324);
#301=LINE('',#555,#325);
#302=LINE('',#559,#326);
#303=LINE('',#565,#327);
#304=LINE('',#568,#328);
#305=LINE('',#569,#329);
#306=LINE('',#571,#330);
#307=LINE('',#575,#331);
#308=LINE('',#579,#332);
#309=LINE('',#583,#333);
#310=LINE('',#591,#334);
#311=LINE('',#593,#335);
#312=LINE('',#595,#336);
#313=LINE('',#597,#337);
#314=LINE('',#599,#338);
#315=LINE('',#602,#339);
#316=LINE('',#606,#340);
#317=LINE('',#618,#341);
#318=LINE('',#619,#342);
#319=VECTOR('',#424,4.823276406457);
#320=VECTOR('',#425,4.82327640644994);
#321=VECTOR('',#426,4.823276406457);
#322=VECTOR('',#427,4.82327640644994);
#323=VECTOR('',#444,1.);
#324=VECTOR('',#447,1.);
#325=VECTOR('',#450,1.);
#326=VECTOR('',#453,1.);
#327=VECTOR('',#460,1.);
#328=VECTOR('',#461,1.);
#329=VECTOR('',#462,1.);
#330=VECTOR('',#465,1.);
#331=VECTOR('',#470,1.);
#332=VECTOR('',#473,1.);
#333=VECTOR('',#476,1.);
#334=VECTOR('',#485,1.);
#335=VECTOR('',#488,1.);
#336=VECTOR('',#491,1.);
#337=VECTOR('',#494,1.);
#338=VECTOR('',#497,1.);
#339=VECTOR('',#502,1.);
#340=VECTOR('',#505,1.);
#341=VECTOR('',#524,1.);
#342=VECTOR('',#525,1.);
#343=PRESENTATION_LAYER_ASSIGNMENT('5','Layer 5',(#531,#385));
#344=PRESENTATION_LAYER_ASSIGNMENT('1','Layer 1',(#532,#386,#387,#33));
#345=PRESENTATION_LAYER_ASSIGNMENT('2','Layer 2',(#287,#288,#289,#290,#291,
#292,#293,#294));
#346=STYLED_ITEM('',(#360),#531);
#347=STYLED_ITEM('',(#361),#532);
#348=STYLED_ITEM('',(#362),#287);
#349=STYLED_ITEM('',(#363),#288);
#350=STYLED_ITEM('',(#364),#289);
#351=STYLED_ITEM('',(#365),#290);
#352=STYLED_ITEM('',(#366),#291);
#353=STYLED_ITEM('',(#367),#292);
#354=STYLED_ITEM('',(#368),#293);
#355=STYLED_ITEM('',(#369),#294);
#356=STYLED_ITEM('',(#370),#385);
#357=STYLED_ITEM('',(#371),#386);
#358=STYLED_ITEM('',(#372),#387);
#359=STYLED_ITEM('',(#373),#33);
#360=PRESENTATION_STYLE_ASSIGNMENT((#374));
#361=PRESENTATION_STYLE_ASSIGNMENT((#375));
#362=PRESENTATION_STYLE_ASSIGNMENT((#265));
#363=PRESENTATION_STYLE_ASSIGNMENT((#266));
#364=PRESENTATION_STYLE_ASSIGNMENT((#267));
#365=PRESENTATION_STYLE_ASSIGNMENT((#268));
#366=PRESENTATION_STYLE_ASSIGNMENT((#269));
#367=PRESENTATION_STYLE_ASSIGNMENT((#270));
#368=PRESENTATION_STYLE_ASSIGNMENT((#271));
#369=PRESENTATION_STYLE_ASSIGNMENT((#272));
#370=PRESENTATION_STYLE_ASSIGNMENT((#273));
#371=PRESENTATION_STYLE_ASSIGNMENT((#274));
#372=PRESENTATION_STYLE_ASSIGNMENT((#275));
#373=PRESENTATION_STYLE_ASSIGNMENT((#28));
#374=POINT_STYLE('',#376,POSITIVE_LENGTH_MEASURE(3.),#378);
#375=POINT_STYLE('',#377,POSITIVE_LENGTH_MEASURE(3.),#378);
#376=PRE_DEFINED_POINT_MARKER_SYMBOL('plus');
#377=PRE_DEFINED_POINT_MARKER_SYMBOL('plus');
#378=DRAUGHTING_PRE_DEFINED_COLOUR('yellow');
#379=DRAUGHTING_PRE_DEFINED_COLOUR('blue');
#380=AXIS2_PLACEMENT_3D('',#530,#422,#423);
#381=AXIS2_PLACEMENT_3D('',#537,#428,#429);
#382=AXIS2_PLACEMENT_3D('',#538,#430,#431);
#383=AXIS2_PLACEMENT_3D('',#539,#432,#433);
#384=AXIS2_PLACEMENT_3D('',#540,#434,#435);
#385=AXIS2_PLACEMENT_3D('MCS',#541,#436,#437);
#386=AXIS2_PLACEMENT_3D('PCS',#542,#438,#439);
#387=AXIS2_PLACEMENT_3D('',#543,#440,#441);
#388=AXIS2_PLACEMENT_3D('',#544,#442,#443);
#389=AXIS2_PLACEMENT_3D('',#549,#445,#446);
#390=AXIS2_PLACEMENT_3D('',#553,#448,#449);
#391=AXIS2_PLACEMENT_3D('',#557,#451,#452);
#392=AXIS2_PLACEMENT_3D('',#560,#454,#455);
#393=AXIS2_PLACEMENT_3D('',#563,#456,#457);
#394=AXIS2_PLACEMENT_3D('',#564,#458,#459);
#395=AXIS2_PLACEMENT_3D('',#570,#463,#464);
#396=AXIS2_PLACEMENT_3D('',#573,#466,#467);
#397=AXIS2_PLACEMENT_3D('',#574,#468,#469);
#398=AXIS2_PLACEMENT_3D('',#577,#471,#472);
#399=AXIS2_PLACEMENT_3D('',#581,#474,#475);
#400=AXIS2_PLACEMENT_3D('',#585,#477,#478);
#401=AXIS2_PLACEMENT_3D('',#586,#479,#480);
#402=AXIS2_PLACEMENT_3D('',#589,#481,#482);
#403=AXIS2_PLACEMENT_3D('',#590,#483,#484);
#404=AXIS2_PLACEMENT_3D('',#592,#486,#487);
#405=AXIS2_PLACEMENT_3D('',#594,#489,#490);
#406=AXIS2_PLACEMENT_3D('',#596,#492,#493);
#407=AXIS2_PLACEMENT_3D('',#598,#495,#496);
#408=AXIS2_PLACEMENT_3D('',#600,#498,#499);
#409=AXIS2_PLACEMENT_3D('',#601,#500,#501);
#410=AXIS2_PLACEMENT_3D('',#604,#503,#504);
#411=AXIS2_PLACEMENT_3D('',#607,#506,#507);
#412=AXIS2_PLACEMENT_3D('',#608,#508,#509);
#413=AXIS2_PLACEMENT_3D('',#609,#510,#511);
#414=AXIS2_PLACEMENT_3D('',#610,#512,#513);
#415=AXIS2_PLACEMENT_3D('',#613,#514,#515);
#416=AXIS2_PLACEMENT_3D('',#614,#516,#517);
#417=AXIS2_PLACEMENT_3D('',#615,#518,#519);
#418=AXIS2_PLACEMENT_3D('',#616,#520,#521);
#419=AXIS2_PLACEMENT_3D('',#617,#522,#523);
#420=AXIS2_PLACEMENT_3D('',#620,#526,#527);
#421=AXIS2_PLACEMENT_3D('',#621,#528,#529);
#422=DIRECTION('',(0.,0.,1.));
#423=DIRECTION('',(1.,0.,0.));
#424=DIRECTION('',(1.,0.,0.));
#425=DIRECTION('',(-0.173648177666902,-0.984807753012213,0.));
#426=DIRECTION('',(-1.,0.,0.));
#427=DIRECTION('',(0.173648177666902,0.984807753012213,0.));
#428=DIRECTION('',(0.,0.,-1.));
#429=DIRECTION('',(0.,1.,0.));
#430=DIRECTION('',(0.,0.,-1.));
#431=DIRECTION('',(0.984807753012884,-0.173648177663097,0.));
#432=DIRECTION('',(0.,0.,-1.));
#433=DIRECTION('',(0.,-1.,0.));
#434=DIRECTION('',(0.,0.,-1.));
#435=DIRECTION('',(-0.984807753012884,0.173648177663097,0.));
#436=DIRECTION('',(0.,0.,1.));
#437=DIRECTION('',(1.,0.,0.));
#438=DIRECTION('',(0.,0.,1.));
#439=DIRECTION('',(1.,0.,0.));
#440=DIRECTION('',(0.,0.,1.));
#441=DIRECTION('',(1.,0.,0.));
#442=DIRECTION('',(0.,0.,-1.));
#443=DIRECTION('',(-0.984807753012884,0.173648177663097,0.));
#444=DIRECTION('',(0.173648177666902,0.984807753012213,0.));
#445=DIRECTION('',(0.,0.,-1.));
#446=DIRECTION('',(0.,-1.,0.));
#447=DIRECTION('',(-1.,0.,0.));
#448=DIRECTION('',(0.,0.,-1.));
#449=DIRECTION('',(0.984807753012884,-0.173648177663097,0.));
#450=DIRECTION('',(-0.173648177666902,-0.984807753012213,0.));
#451=DIRECTION('',(0.,0.,-1.));
#452=DIRECTION('',(0.,1.,0.));
#453=DIRECTION('',(1.,0.,0.));
#454=DIRECTION('',(0.,0.,1.));
#455=DIRECTION('',(-0.766044443119007,-0.642787609686505,0.));
#456=DIRECTION('',(0.,0.,1.));
#457=DIRECTION('',(0.766044443119007,0.642787609686505,0.));
#458=DIRECTION('',(0.,0.,1.));
#459=DIRECTION('',(-0.642787609686505,0.766044443119006,0.));
#460=DIRECTION('',(-1.,0.,0.));
#461=DIRECTION('',(1.37789749138304E-13,0.121869343405103,0.992546151641327));
#462=DIRECTION('',(1.26492471319204E-13,-0.121869343405103,-0.992546151641327));
#463=DIRECTION('',(0.,0.992546151641327,-0.121869343405103));
#464=DIRECTION('',(1.,0.,0.));
#465=DIRECTION('',(0.120017874239902,-0.0211623893958504,0.99254615164132));
#466=DIRECTION('',(0.,0.,1.));
#467=DIRECTION('',(0.984807753010891,-0.173648177674398,0.));
#468=DIRECTION('',(0.,0.,1.));
#469=DIRECTION('',(0.,1.,-1.98503542769771E-16));
#470=DIRECTION('',(0.173648177666902,0.984807753012213,0.));
#471=DIRECTION('',(0.,0.,1.));
#472=DIRECTION('',(1.9575618451811E-12,-1.,0.));
#473=DIRECTION('',(1.,0.,0.));
#474=DIRECTION('',(0.,0.,1.));
#475=DIRECTION('',(-0.984807753010891,0.173648177674398,0.));
#476=DIRECTION('',(-0.173648177666902,-0.984807753012213,0.));
#477=DIRECTION('',(0.,0.,1.));
#478=DIRECTION('',(-1.9575618451811E-12,1.,0.));
#479=DIRECTION('',(0.,0.,-1.));
#480=DIRECTION('',(0.766044443119007,0.642787609686505,0.));
#481=DIRECTION('',(0.,0.,-1.));
#482=DIRECTION('',(-0.766044443119007,-0.642787609686505,0.));
#483=DIRECTION('',(0.,0.,1.));
#484=DIRECTION('',(-0.642787609686505,0.766044443119006,0.));
#485=DIRECTION('',(0.120017874239902,-0.0211623893958704,-0.992546151641319));
#486=DIRECTION('',(0.,0.,1.));
#487=DIRECTION('',(-0.984807753012213,0.173648177666902,-1.98503542769771E-16));
#488=DIRECTION('',(-0.120017874239902,0.0211623893958504,0.99254615164132));
#489=DIRECTION('',(-0.977467145358817,0.172353830482803,-0.121869343405102));
#490=DIRECTION('',(0.173648177666892,0.984807753012215,-1.28537043492081E-15));
#491=DIRECTION('',(-1.26492471319204E-13,0.121869343405103,-0.992546151641327));
#492=DIRECTION('',(0.,0.,1.));
#493=DIRECTION('',(0.,-1.,-1.98503542769771E-16));
#494=DIRECTION('',(-1.37789749138304E-13,-0.121869343405103,0.992546151641327));
#495=DIRECTION('',(0.,-0.992546151641327,-0.121869343405103));
#496=DIRECTION('',(-1.,0.,0.));
#497=DIRECTION('',(-0.120017874239902,0.0211623893958704,-0.992546151641319));
#498=DIRECTION('',(0.,0.,1.));
#499=DIRECTION('',(0.984807753012213,-0.173648177666902,-1.98503542769771E-16));
#500=DIRECTION('',(0.977467145358817,-0.172353830482803,-0.121869343405102));
#501=DIRECTION('',(-0.173648177666892,-0.984807753012215,-1.28537043492081E-15));
#502=DIRECTION('',(4.838656379674E-13,-5.863249914616E-13,-1.));
#503=DIRECTION('',(0.,0.,1.));
#504=DIRECTION('',(0.766044443119097,0.642787609686398,0.));
#505=DIRECTION('',(-4.184203964684E-14,5.900800463017E-14,-1.));
#506=DIRECTION('',(0.,0.,-1.));
#507=DIRECTION('',(0.766044443119006,0.642787609686505,0.));
#508=DIRECTION('',(0.,0.,1.));
#509=DIRECTION('',(-0.766044443119007,-0.642787609686505,0.));
#510=DIRECTION('',(0.,0.,-1.));
#511=DIRECTION('',(0.766044443119006,0.642787609686505,0.));
#512=DIRECTION('',(0.,0.,-1.));
#513=DIRECTION('',(0.766044443119007,0.642787609686505,0.));
#514=DIRECTION('',(-0.64278760968678,0.766044443118776,0.));
#515=DIRECTION('',(-0.766044443118776,-0.64278760968678,0.));
#516=DIRECTION('',(0.642787609686505,-0.766044443119007,0.));
#517=DIRECTION('',(0.766044443119007,0.642787609686505,0.));
#518=DIRECTION('',(0.,0.,-1.));
#519=DIRECTION('',(0.766044443119006,0.642787609686505,0.));
#520=DIRECTION('',(0.,0.,-1.));
#521=DIRECTION('',(-0.766044443119007,-0.642787609686505,0.));
#522=DIRECTION('',(0.,0.,-1.));
#523=DIRECTION('',(0.766044443119006,0.642787609686505,0.));
#524=DIRECTION('',(-1.42108547152E-13,-1.456612608308E-13,-1.));
#525=DIRECTION('',(-3.104183576851E-13,6.847855615887E-13,-1.));
#526=DIRECTION('',(0.,0.,-1.));
#527=DIRECTION('',(0.766044443119006,0.642787609686505,0.));
#528=DIRECTION('',(0.,0.,-1.));
#529=DIRECTION('',(0.766044443119006,0.642787609686505,0.));
#530=CARTESIAN_POINT('',(0.,0.,0.));
#531=CARTESIAN_POINT('',(0.,0.,0.));
#532=CARTESIAN_POINT('',(-3.783817656486,-3.175,0.));
#533=CARTESIAN_POINT('',(-1.992861624046,3.175,0.));
#534=CARTESIAN_POINT('',(3.61826098482,2.236081457862,0.));
#535=CARTESIAN_POINT('',(1.992861624046,-3.175,0.));
#536=CARTESIAN_POINT('',(-3.61826098482,-2.236081457862,0.));
#537=CARTESIAN_POINT('',(2.830414782411,2.375,0.));
#538=CARTESIAN_POINT('',(1.992861624046,-2.375,0.));
#539=CARTESIAN_POINT('',(-2.830414782411,-2.375,0.));
#540=CARTESIAN_POINT('',(-1.992861624046,2.375,0.));
#541=CARTESIAN_POINT('',(0.,0.,0.));
#542=CARTESIAN_POINT('',(-3.783817656486,-3.175,0.));
#543=CARTESIAN_POINT('',(0.,0.,0.));
#544=CARTESIAN_POINT('',(-1.992861624046,2.375,0.));
#545=CARTESIAN_POINT('',(-2.780707826456,2.513918542133,2.694757045317E-14));
#546=CARTESIAN_POINT('',(-1.992861624046,3.175,0.));
#547=CARTESIAN_POINT('',(-3.61826098482,-2.236081457865,2.930101266059E-14));
#548=CARTESIAN_POINT('',(-3.61826098482,-2.236081457862,0.));
#549=CARTESIAN_POINT('',(-2.830414782411,-2.375,0.));
#550=CARTESIAN_POINT('',(-2.830414782411,-3.175,0.));
#551=CARTESIAN_POINT('',(1.992861624046,-3.175,0.));
#552=CARTESIAN_POINT('',(1.992861624046,-3.175,0.));
#553=CARTESIAN_POINT('',(1.992861624046,-2.375,0.));
#554=CARTESIAN_POINT('',(2.780707826456,-2.513918542133,2.694757045317E-14));
#555=CARTESIAN_POINT('',(3.61826098482,2.236081457865,2.930101266059E-14));
#556=CARTESIAN_POINT('',(3.61826098482,2.236081457862,0.));
#557=CARTESIAN_POINT('',(2.830414782411,2.375,0.));
#558=CARTESIAN_POINT('',(2.830414782411,3.175,0.));
#559=CARTESIAN_POINT('',(-1.992861624046,3.175,0.));
#560=CARTESIAN_POINT('',(0.,0.,0.));
#561=CARTESIAN_POINT('',(-1.436333330848,-1.205226768162,0.));
#562=CARTESIAN_POINT('',(1.436333330848,1.205226768162,0.));
#563=CARTESIAN_POINT('',(0.,0.,0.));
#564=CARTESIAN_POINT('',(0.,0.,0.));
#565=CARTESIAN_POINT('',(2.830414782411,2.882772745051,-2.38));
#566=CARTESIAN_POINT('',(2.830414782411,2.882772745051,-2.38));
#567=CARTESIAN_POINT('',(-1.992861624046,2.882772745051,-2.38));
#568=CARTESIAN_POINT('',(-1.992861624046,2.882772745051,-2.38));
#569=CARTESIAN_POINT('',(2.830414782411,3.175,0.));
#570=CARTESIAN_POINT('',(4.903822456679,3.175,0.));
#571=CARTESIAN_POINT('',(3.330473318505,2.286826188151,-2.38));
#572=CARTESIAN_POINT('',(3.330473318505,2.286826188151,-2.38));
#573=CARTESIAN_POINT('',(2.830414782411,2.375,-2.38));
#574=CARTESIAN_POINT('',(2.830414782411,2.375,-1.19));
#575=CARTESIAN_POINT('',(2.492920160141,-2.463173811846,-2.38));
#576=CARTESIAN_POINT('',(2.492920160141,-2.463173811843,-2.38));
#577=CARTESIAN_POINT('',(1.992861624046,-2.375,-2.38));
#578=CARTESIAN_POINT('',(1.992861624046,-2.882772745051,-2.38));
#579=CARTESIAN_POINT('',(-2.830414782411,-2.882772745051,-2.38));
#580=CARTESIAN_POINT('',(-2.830414782412,-2.882772745051,-2.38));
#581=CARTESIAN_POINT('',(-2.830414782411,-2.375,-2.38));
#582=CARTESIAN_POINT('',(-3.330473318505,-2.286826188151,-2.38));
#583=CARTESIAN_POINT('',(-2.492920160141,2.463173811846,-2.38));
#584=CARTESIAN_POINT('',(-2.492920160141,2.463173811843,-2.38));
#585=CARTESIAN_POINT('',(-1.992861624046,2.375,-2.38));
#586=CARTESIAN_POINT('',(0.,0.,-2.38));
#587=CARTESIAN_POINT('',(1.072462220367,0.899902653561,-2.38));
#588=CARTESIAN_POINT('',(-1.072462220367,-0.899902653561,-2.38));
#589=CARTESIAN_POINT('',(0.,0.,-2.38));
#590=CARTESIAN_POINT('',(0.,0.,-2.38));
#591=CARTESIAN_POINT('',(-2.780707826456,2.513918542133,2.694757045317E-14));
#592=CARTESIAN_POINT('',(-1.992861624046,2.375,-1.19));
#593=CARTESIAN_POINT('',(-3.330473318505,-2.286826188151,-2.38));
#594=CARTESIAN_POINT('',(-2.469654536456,4.27798941064,0.));
#595=CARTESIAN_POINT('',(-2.830414782411,-3.175,0.));
#596=CARTESIAN_POINT('',(-2.830414782411,-2.375,-1.19));
#597=CARTESIAN_POINT('',(1.992861624046,-2.882772745051,-2.38));
#598=CARTESIAN_POINT('',(-4.903822456679,-3.175,0.));
#599=CARTESIAN_POINT('',(2.780707826456,-2.513918542133,2.694757045317E-14));
#600=CARTESIAN_POINT('',(1.992861624046,-2.375,-1.19));
#601=CARTESIAN_POINT('',(2.469654536456,-4.27798941064,0.));
#602=CARTESIAN_POINT('',(1.072462220367,0.899902653561,-2.38));
#603=CARTESIAN_POINT('',(1.072462220367,0.899902653561,-1.96607469114));
#604=CARTESIAN_POINT('',(0.,0.,-1.96607469114));
#605=CARTESIAN_POINT('',(-1.072462220367,-0.8999026535611,-1.96607469114));
#606=CARTESIAN_POINT('',(-1.072462220367,-0.8999026535611,-2.38));
#607=CARTESIAN_POINT('',(0.,0.,0.119));
#608=CARTESIAN_POINT('',(0.,0.,-1.96607469114));
#609=CARTESIAN_POINT('',(0.,0.,0.119));
#610=CARTESIAN_POINT('',(0.,0.,-0.5000000000001));
#611=CARTESIAN_POINT('',(1.436333330848,1.205226768162,-0.5000000000001));
#612=CARTESIAN_POINT('',(-1.436333330848,-1.205226768162,-0.5000000000001));
#613=CARTESIAN_POINT('',(2.987573328163,2.506871677778,-1.96607469114));
#614=CARTESIAN_POINT('',(-2.987573328164,-2.506871677777,-1.96607469114));
#615=CARTESIAN_POINT('',(0.,0.,-1.96607469114));
#616=CARTESIAN_POINT('',(0.,0.,-0.5000000000001));
#617=CARTESIAN_POINT('',(0.,0.,-1.96607469114));
#618=CARTESIAN_POINT('',(-1.436333330848,-1.205226768162,-0.5000000000001));
#619=CARTESIAN_POINT('',(1.436333330848,1.205226768162,-0.5000000000001));
#620=CARTESIAN_POINT('',(0.,0.,0.119));
#621=CARTESIAN_POINT('',(0.,0.,0.119));
#622=MECHANICAL_DESIGN_GEOMETRIC_PRESENTATION_REPRESENTATION('',(#346,#347,
#348,#349,#350,#351,#352,#353,#354,#355,#356,#357,#358,#359),#623);
#623=(
GEOMETRIC_REPRESENTATION_CONTEXT(3)
GLOBAL_UNCERTAINTY_ASSIGNED_CONTEXT((#624))
GLOBAL_UNIT_ASSIGNED_CONTEXT((#630,#626,#625))
REPRESENTATION_CONTEXT('CC060208N','TOP_LEVEL_ASSEMBLY_PART')
);
#624=UNCERTAINTY_MEASURE_WITH_UNIT(LENGTH_MEASURE(2.E-5),#630,
'DISTANCE_ACCURACY_VALUE','Maximum Tolerance applied to model');
#625=(
NAMED_UNIT(*)
SI_UNIT($,.STERADIAN.)
SOLID_ANGLE_UNIT()
);
#626=(
CONVERSION_BASED_UNIT('DEGREE',#628)
NAMED_UNIT(#627)
PLANE_ANGLE_UNIT()
);
#627=DIMENSIONAL_EXPONENTS(0.,0.,0.,0.,0.,0.,0.);
#628=PLANE_ANGLE_MEASURE_WITH_UNIT(PLANE_ANGLE_MEASURE(0.0174532925),#629);
#629=(
NAMED_UNIT(*)
PLANE_ANGLE_UNIT()
SI_UNIT($,.RADIAN.)
);
#630=(
LENGTH_UNIT()
NAMED_UNIT(*)
SI_UNIT(.MILLI.,.METRE.)
);
ENDSEC;
END-ISO-10303-21;
