ISO-10303-21;
HEADER;
/* Generated by software containing ST-Developer
 * from STEP Tools, Inc. (www.steptools.com) 
 */
/* OPTION: using custom schema-name function */

FILE_DESCRIPTION(
/* description */ (''),
/* implementation_level */ '2;1');

FILE_NAME(
/* name */ 'MFE0350X02S060.stp',
/* time_stamp */ '2020-08-19T18:20:22+09:00',
/* author */ (''),
/* organization */ (''),
/* preprocessor_version */ 'ST-DEVELOPER v16',
/* originating_system */ 'SIEMENS PLM Software NX 10.0',
/* authorisation */ '');

FILE_SCHEMA (('AUTOMOTIVE_DESIGN { 1 0 10303 214 3 1 1 1 }'));
ENDSEC;

DATA;
#10=CONSTRUCTIVE_GEOMETRY_REPRESENTATION_RELATIONSHIP(
'supplemental geometry','',#26,#11);
#11=CONSTRUCTIVE_GEOMETRY_REPRESENTATION('supplemental geometry',(#330,
#331,#332,#333,#334,#335,#336,#337,#338,#339,#340,#341,#342),#545);
#12=GEOMETRICALLY_BOUNDED_WIREFRAME_SHAPE_REPRESENTATION(
'MFE0350X02S060-None',(#27),#545);
#13=SHAPE_REPRESENTATION_RELATIONSHIP('None',
'relationship between MFE0350X02S060-None and MFE0350X02S060-None',#26,
#15);
#14=SHAPE_REPRESENTATION_RELATIONSHIP('None',
'relationship between MFE0350X02S060-None and MFE0350X02S060-None',#26,
#12);
#15=ADVANCED_BREP_SHAPE_REPRESENTATION('MFE0350X02S060-None',(#42,#43),
#545);
#16=SHAPE_DEFINITION_REPRESENTATION(#17,#26);
#17=PRODUCT_DEFINITION_SHAPE('','SHAPE FOR MFE0350X02S060_ASM.',#18);
#18=PRODUCT_DEFINITION('part definition','',#20,#19);
#19=PRODUCT_DEFINITION_CONTEXT('part definition',#25,'design');
#20=PRODUCT_DEFINITION_FORMATION_WITH_SPECIFIED_SOURCE(' ',' ',#22,
 .NOT_KNOWN.);
#21=PRODUCT_RELATED_PRODUCT_CATEGORY('part','',(#22));
#22=PRODUCT('MFE0350X02S060_ASM','MFE0350X02S060_ASM','NOT SPECIFIED',(#23));
#23=PRODUCT_CONTEXT('',#25,'mechanical');
#24=APPLICATION_PROTOCOL_DEFINITION('international standard',
'automotive_design',2010,#25);
#25=APPLICATION_CONTEXT(
'core data for automotive mechanical design processes');
#26=SHAPE_REPRESENTATION('MFE0350X02S060-None',(#329),#545);
#27=GEOMETRIC_CURVE_SET('None',(#470,#471,#472,#473,#474,#233,#234,#235,
#236));
#28=CONICAL_SURFACE('',#359,2.375,15.);
#29=CONICAL_SURFACE('',#361,2.375,15.);
#30=CONICAL_SURFACE('',#367,2.7,45.);
#31=CONICAL_SURFACE('',#369,2.7,45.);
#32=SURFACE_STYLE_USAGE(.BOTH.,#34);
#33=SURFACE_STYLE_USAGE(.BOTH.,#35);
#34=SURFACE_SIDE_STYLE('',(#36));
#35=SURFACE_SIDE_STYLE('',(#37));
#36=SURFACE_STYLE_FILL_AREA(#38);
#37=SURFACE_STYLE_FILL_AREA(#39);
#38=FILL_AREA_STYLE('',(#40));
#39=FILL_AREA_STYLE('',(#41));
#40=FILL_AREA_STYLE_COLOUR('',#327);
#41=FILL_AREA_STYLE_COLOUR('',#328);
#42=MANIFOLD_SOLID_BREP('CUT',#44);
#43=MANIFOLD_SOLID_BREP('NOCUT',#45);
#44=CLOSED_SHELL('',(#50,#51,#52,#53));
#45=CLOSED_SHELL('',(#54,#55,#56,#57,#58,#59,#60,#61,#62,#63));
#46=PLANE('',#347);
#47=PLANE('',#350);
#48=PLANE('',#355);
#49=PLANE('',#370);
#50=ADVANCED_FACE('',(#70),#64,.T.);
#51=ADVANCED_FACE('',(#71),#46,.F.);
#52=ADVANCED_FACE('',(#72),#65,.T.);
#53=ADVANCED_FACE('',(#73),#47,.T.);
#54=ADVANCED_FACE('',(#74),#66,.T.);
#55=ADVANCED_FACE('',(#75),#48,.F.);
#56=ADVANCED_FACE('',(#76),#67,.T.);
#57=ADVANCED_FACE('',(#77),#28,.T.);
#58=ADVANCED_FACE('',(#78),#29,.T.);
#59=ADVANCED_FACE('',(#79),#68,.T.);
#60=ADVANCED_FACE('',(#80),#69,.T.);
#61=ADVANCED_FACE('',(#81),#30,.T.);
#62=ADVANCED_FACE('',(#82),#31,.T.);
#63=ADVANCED_FACE('',(#83),#49,.F.);
#64=CYLINDRICAL_SURFACE('',#345,1.75);
#65=CYLINDRICAL_SURFACE('',#349,1.75);
#66=CYLINDRICAL_SURFACE('',#353,1.75);
#67=CYLINDRICAL_SURFACE('',#357,1.75);
#68=CYLINDRICAL_SURFACE('',#363,3.);
#69=CYLINDRICAL_SURFACE('',#365,3.);
#70=FACE_OUTER_BOUND('',#84,.T.);
#71=FACE_OUTER_BOUND('',#85,.T.);
#72=FACE_OUTER_BOUND('',#86,.T.);
#73=FACE_OUTER_BOUND('',#87,.T.);
#74=FACE_OUTER_BOUND('',#88,.T.);
#75=FACE_OUTER_BOUND('',#89,.T.);
#76=FACE_OUTER_BOUND('',#90,.T.);
#77=FACE_OUTER_BOUND('',#91,.T.);
#78=FACE_OUTER_BOUND('',#92,.T.);
#79=FACE_OUTER_BOUND('',#93,.T.);
#80=FACE_OUTER_BOUND('',#94,.T.);
#81=FACE_OUTER_BOUND('',#95,.T.);
#82=FACE_OUTER_BOUND('',#96,.T.);
#83=FACE_OUTER_BOUND('',#97,.T.);
#84=EDGE_LOOP('',(#112,#113,#114,#115));
#85=EDGE_LOOP('',(#116,#117));
#86=EDGE_LOOP('',(#118,#119,#120,#121));
#87=EDGE_LOOP('',(#122,#123));
#88=EDGE_LOOP('',(#124,#125,#126,#127));
#89=EDGE_LOOP('',(#128,#129));
#90=EDGE_LOOP('',(#130,#131,#132,#133));
#91=EDGE_LOOP('',(#134,#135,#136,#137));
#92=EDGE_LOOP('',(#138,#139,#140,#141));
#93=EDGE_LOOP('',(#142,#143,#144,#145));
#94=EDGE_LOOP('',(#146,#147,#148,#149));
#95=EDGE_LOOP('',(#150,#151,#152,#153));
#96=EDGE_LOOP('',(#154,#155,#156,#157));
#97=EDGE_LOOP('',(#158,#159));
#98=CIRCLE('',#343,1.75);
#99=CIRCLE('',#344,1.75);
#100=CIRCLE('',#346,1.75);
#101=CIRCLE('',#348,1.75);
#102=CIRCLE('',#351,1.75);
#103=CIRCLE('',#352,1.75);
#104=CIRCLE('',#354,1.75);
#105=CIRCLE('',#356,1.75);
#106=CIRCLE('',#358,3.);
#107=CIRCLE('',#360,3.);
#108=CIRCLE('',#362,3.);
#109=CIRCLE('',#364,3.);
#110=CIRCLE('',#366,2.4);
#111=CIRCLE('',#368,2.4);
#112=ORIENTED_EDGE('',*,*,#174,.T.);
#113=ORIENTED_EDGE('',*,*,#175,.T.);
#114=ORIENTED_EDGE('',*,*,#176,.F.);
#115=ORIENTED_EDGE('',*,*,#177,.T.);
#116=ORIENTED_EDGE('',*,*,#178,.F.);
#117=ORIENTED_EDGE('',*,*,#177,.F.);
#118=ORIENTED_EDGE('',*,*,#176,.T.);
#119=ORIENTED_EDGE('',*,*,#179,.T.);
#120=ORIENTED_EDGE('',*,*,#174,.F.);
#121=ORIENTED_EDGE('',*,*,#178,.T.);
#122=ORIENTED_EDGE('',*,*,#175,.F.);
#123=ORIENTED_EDGE('',*,*,#179,.F.);
#124=ORIENTED_EDGE('',*,*,#180,.F.);
#125=ORIENTED_EDGE('',*,*,#181,.T.);
#126=ORIENTED_EDGE('',*,*,#182,.T.);
#127=ORIENTED_EDGE('',*,*,#183,.T.);
#128=ORIENTED_EDGE('',*,*,#184,.F.);
#129=ORIENTED_EDGE('',*,*,#183,.F.);
#130=ORIENTED_EDGE('',*,*,#182,.F.);
#131=ORIENTED_EDGE('',*,*,#185,.T.);
#132=ORIENTED_EDGE('',*,*,#180,.T.);
#133=ORIENTED_EDGE('',*,*,#184,.T.);
#134=ORIENTED_EDGE('',*,*,#185,.F.);
#135=ORIENTED_EDGE('',*,*,#186,.T.);
#136=ORIENTED_EDGE('',*,*,#187,.F.);
#137=ORIENTED_EDGE('',*,*,#188,.F.);
#138=ORIENTED_EDGE('',*,*,#189,.F.);
#139=ORIENTED_EDGE('',*,*,#186,.F.);
#140=ORIENTED_EDGE('',*,*,#181,.F.);
#141=ORIENTED_EDGE('',*,*,#188,.T.);
#142=ORIENTED_EDGE('',*,*,#190,.T.);
#143=ORIENTED_EDGE('',*,*,#191,.T.);
#144=ORIENTED_EDGE('',*,*,#189,.T.);
#145=ORIENTED_EDGE('',*,*,#192,.F.);
#146=ORIENTED_EDGE('',*,*,#187,.T.);
#147=ORIENTED_EDGE('',*,*,#191,.F.);
#148=ORIENTED_EDGE('',*,*,#193,.T.);
#149=ORIENTED_EDGE('',*,*,#192,.T.);
#150=ORIENTED_EDGE('',*,*,#193,.F.);
#151=ORIENTED_EDGE('',*,*,#194,.T.);
#152=ORIENTED_EDGE('',*,*,#195,.T.);
#153=ORIENTED_EDGE('',*,*,#196,.F.);
#154=ORIENTED_EDGE('',*,*,#197,.T.);
#155=ORIENTED_EDGE('',*,*,#194,.F.);
#156=ORIENTED_EDGE('',*,*,#190,.F.);
#157=ORIENTED_EDGE('',*,*,#196,.T.);
#158=ORIENTED_EDGE('',*,*,#197,.F.);
#159=ORIENTED_EDGE('',*,*,#195,.F.);
#160=VERTEX_POINT('',#493);
#161=VERTEX_POINT('',#494);
#162=VERTEX_POINT('',#496);
#163=VERTEX_POINT('',#498);
#164=VERTEX_POINT('',#507);
#165=VERTEX_POINT('',#508);
#166=VERTEX_POINT('',#510);
#167=VERTEX_POINT('',#512);
#168=VERTEX_POINT('',#520);
#169=VERTEX_POINT('',#522);
#170=VERTEX_POINT('',#528);
#171=VERTEX_POINT('',#529);
#172=VERTEX_POINT('',#536);
#173=VERTEX_POINT('',#538);
#174=EDGE_CURVE('',#160,#161,#241,.T.);
#175=EDGE_CURVE('',#161,#162,#98,.T.);
#176=EDGE_CURVE('',#163,#162,#242,.T.);
#177=EDGE_CURVE('',#163,#160,#99,.T.);
#178=EDGE_CURVE('',#160,#163,#100,.T.);
#179=EDGE_CURVE('',#162,#161,#101,.T.);
#180=EDGE_CURVE('',#164,#165,#243,.T.);
#181=EDGE_CURVE('',#164,#166,#102,.T.);
#182=EDGE_CURVE('',#166,#167,#244,.T.);
#183=EDGE_CURVE('',#167,#165,#103,.T.);
#184=EDGE_CURVE('',#165,#167,#104,.T.);
#185=EDGE_CURVE('',#166,#164,#105,.T.);
#186=EDGE_CURVE('',#166,#168,#245,.T.);
#187=EDGE_CURVE('',#169,#168,#106,.T.);
#188=EDGE_CURVE('',#164,#169,#246,.T.);
#189=EDGE_CURVE('',#168,#169,#107,.T.);
#190=EDGE_CURVE('',#170,#171,#108,.T.);
#191=EDGE_CURVE('',#171,#168,#247,.T.);
#192=EDGE_CURVE('',#170,#169,#248,.T.);
#193=EDGE_CURVE('',#171,#170,#109,.T.);
#194=EDGE_CURVE('',#171,#172,#249,.T.);
#195=EDGE_CURVE('',#172,#173,#110,.T.);
#196=EDGE_CURVE('',#170,#173,#250,.T.);
#197=EDGE_CURVE('',#173,#172,#111,.T.);
#198=CURVE_STYLE('',#216,POSITIVE_LENGTH_MEASURE(0.18),#215);
#199=CURVE_STYLE('',#217,POSITIVE_LENGTH_MEASURE(0.18),#215);
#200=CURVE_STYLE('',#218,POSITIVE_LENGTH_MEASURE(0.18),#215);
#201=CURVE_STYLE('',#219,POSITIVE_LENGTH_MEASURE(0.18),#215);
#202=CURVE_STYLE('',#220,POSITIVE_LENGTH_MEASURE(0.13),#326);
#203=CURVE_STYLE('',#221,POSITIVE_LENGTH_MEASURE(0.13),#326);
#204=CURVE_STYLE('',#222,POSITIVE_LENGTH_MEASURE(0.13),#326);
#205=CURVE_STYLE('',#223,POSITIVE_LENGTH_MEASURE(0.13),#325);
#206=CURVE_STYLE('',#224,POSITIVE_LENGTH_MEASURE(0.13),#325);
#207=CURVE_STYLE('',#225,POSITIVE_LENGTH_MEASURE(0.18),#326);
#208=CURVE_STYLE('',#226,POSITIVE_LENGTH_MEASURE(0.13),#325);
#209=CURVE_STYLE('',#227,POSITIVE_LENGTH_MEASURE(0.13),#326);
#210=CURVE_STYLE('',#228,POSITIVE_LENGTH_MEASURE(0.13),#326);
#211=CURVE_STYLE('',#229,POSITIVE_LENGTH_MEASURE(0.13),#326);
#212=CURVE_STYLE('',#230,POSITIVE_LENGTH_MEASURE(0.13),#325);
#213=CURVE_STYLE('',#231,POSITIVE_LENGTH_MEASURE(0.13),#326);
#214=CURVE_STYLE('',#232,POSITIVE_LENGTH_MEASURE(0.13),#326);
#215=DRAUGHTING_PRE_DEFINED_COLOUR('blue');
#216=DRAUGHTING_PRE_DEFINED_CURVE_FONT('continuous');
#217=DRAUGHTING_PRE_DEFINED_CURVE_FONT('continuous');
#218=DRAUGHTING_PRE_DEFINED_CURVE_FONT('continuous');
#219=DRAUGHTING_PRE_DEFINED_CURVE_FONT('continuous');
#220=DRAUGHTING_PRE_DEFINED_CURVE_FONT('continuous');
#221=DRAUGHTING_PRE_DEFINED_CURVE_FONT('continuous');
#222=DRAUGHTING_PRE_DEFINED_CURVE_FONT('continuous');
#223=DRAUGHTING_PRE_DEFINED_CURVE_FONT('continuous');
#224=DRAUGHTING_PRE_DEFINED_CURVE_FONT('continuous');
#225=DRAUGHTING_PRE_DEFINED_CURVE_FONT('continuous');
#226=DRAUGHTING_PRE_DEFINED_CURVE_FONT('continuous');
#227=DRAUGHTING_PRE_DEFINED_CURVE_FONT('continuous');
#228=DRAUGHTING_PRE_DEFINED_CURVE_FONT('continuous');
#229=DRAUGHTING_PRE_DEFINED_CURVE_FONT('continuous');
#230=DRAUGHTING_PRE_DEFINED_CURVE_FONT('continuous');
#231=DRAUGHTING_PRE_DEFINED_CURVE_FONT('continuous');
#232=DRAUGHTING_PRE_DEFINED_CURVE_FONT('continuous');
#233=TRIMMED_CURVE('',#237,(PARAMETER_VALUE(0.)),(PARAMETER_VALUE(1.)),
 .T.,.PARAMETER.);
#234=TRIMMED_CURVE('',#238,(PARAMETER_VALUE(0.)),(PARAMETER_VALUE(1.)),
 .T.,.PARAMETER.);
#235=TRIMMED_CURVE('',#239,(PARAMETER_VALUE(0.)),(PARAMETER_VALUE(1.)),
 .T.,.PARAMETER.);
#236=TRIMMED_CURVE('',#240,(PARAMETER_VALUE(0.)),(PARAMETER_VALUE(1.)),
 .T.,.PARAMETER.);
#237=LINE('',#475,#251);
#238=LINE('',#476,#252);
#239=LINE('',#477,#253);
#240=LINE('',#478,#254);
#241=LINE('',#492,#255);
#242=LINE('',#497,#256);
#243=LINE('',#506,#257);
#244=LINE('',#511,#258);
#245=LINE('',#519,#259);
#246=LINE('',#523,#260);
#247=LINE('',#530,#261);
#248=LINE('',#531,#262);
#249=LINE('',#535,#263);
#250=LINE('',#539,#264);
#251=VECTOR('',#373,1.75);
#252=VECTOR('',#374,7.);
#253=VECTOR('',#375,1.75);
#254=VECTOR('',#376,7.);
#255=VECTOR('',#403,1.);
#256=VECTOR('',#406,1.);
#257=VECTOR('',#421,1.);
#258=VECTOR('',#424,1.);
#259=VECTOR('',#437,1.);
#260=VECTOR('',#440,1.);
#261=VECTOR('',#449,1.);
#262=VECTOR('',#450,1.);
#263=VECTOR('',#457,1.);
#264=VECTOR('',#460,1.);
#265=PRESENTATION_LAYER_ASSIGNMENT('2','Layer 2',(#470,#471,#333,#334));
#266=PRESENTATION_LAYER_ASSIGNMENT('1','Layer 1',(#472,#473,#474,#233,#234,
#235,#236,#330,#331,#332,#335,#336,#337,#338,#339,#340,#341,#342,#42,#43));
#267=STYLED_ITEM('',(#291),#470);
#268=STYLED_ITEM('',(#292),#471);
#269=STYLED_ITEM('',(#293),#472);
#270=STYLED_ITEM('',(#294),#473);
#271=STYLED_ITEM('',(#295),#474);
#272=STYLED_ITEM('',(#296),#233);
#273=STYLED_ITEM('',(#297),#234);
#274=STYLED_ITEM('',(#298),#235);
#275=STYLED_ITEM('',(#299),#236);
#276=STYLED_ITEM('',(#300),#330);
#277=STYLED_ITEM('',(#301),#331);
#278=STYLED_ITEM('',(#302),#332);
#279=STYLED_ITEM('',(#303),#333);
#280=STYLED_ITEM('',(#304),#334);
#281=STYLED_ITEM('',(#305),#335);
#282=STYLED_ITEM('',(#306),#336);
#283=STYLED_ITEM('',(#307),#337);
#284=STYLED_ITEM('',(#308),#338);
#285=STYLED_ITEM('',(#309),#339);
#286=STYLED_ITEM('',(#310),#340);
#287=STYLED_ITEM('',(#311),#341);
#288=STYLED_ITEM('',(#312),#342);
#289=STYLED_ITEM('',(#313),#42);
#290=STYLED_ITEM('',(#314),#43);
#291=PRESENTATION_STYLE_ASSIGNMENT((#315));
#292=PRESENTATION_STYLE_ASSIGNMENT((#316));
#293=PRESENTATION_STYLE_ASSIGNMENT((#317));
#294=PRESENTATION_STYLE_ASSIGNMENT((#318));
#295=PRESENTATION_STYLE_ASSIGNMENT((#319));
#296=PRESENTATION_STYLE_ASSIGNMENT((#198));
#297=PRESENTATION_STYLE_ASSIGNMENT((#199));
#298=PRESENTATION_STYLE_ASSIGNMENT((#200));
#299=PRESENTATION_STYLE_ASSIGNMENT((#201));
#300=PRESENTATION_STYLE_ASSIGNMENT((#202));
#301=PRESENTATION_STYLE_ASSIGNMENT((#203));
#302=PRESENTATION_STYLE_ASSIGNMENT((#204));
#303=PRESENTATION_STYLE_ASSIGNMENT((#205));
#304=PRESENTATION_STYLE_ASSIGNMENT((#206));
#305=PRESENTATION_STYLE_ASSIGNMENT((#207));
#306=PRESENTATION_STYLE_ASSIGNMENT((#208));
#307=PRESENTATION_STYLE_ASSIGNMENT((#209));
#308=PRESENTATION_STYLE_ASSIGNMENT((#210));
#309=PRESENTATION_STYLE_ASSIGNMENT((#211));
#310=PRESENTATION_STYLE_ASSIGNMENT((#212));
#311=PRESENTATION_STYLE_ASSIGNMENT((#213));
#312=PRESENTATION_STYLE_ASSIGNMENT((#214));
#313=PRESENTATION_STYLE_ASSIGNMENT((#32));
#314=PRESENTATION_STYLE_ASSIGNMENT((#33));
#315=POINT_STYLE('',#320,POSITIVE_LENGTH_MEASURE(3.),#325);
#316=POINT_STYLE('',#321,POSITIVE_LENGTH_MEASURE(3.),#325);
#317=POINT_STYLE('',#322,POSITIVE_LENGTH_MEASURE(3.),#326);
#318=POINT_STYLE('',#323,POSITIVE_LENGTH_MEASURE(3.),#325);
#319=POINT_STYLE('',#324,POSITIVE_LENGTH_MEASURE(3.),#325);
#320=PRE_DEFINED_POINT_MARKER_SYMBOL('plus');
#321=PRE_DEFINED_POINT_MARKER_SYMBOL('plus');
#322=PRE_DEFINED_POINT_MARKER_SYMBOL('plus');
#323=PRE_DEFINED_POINT_MARKER_SYMBOL('plus');
#324=PRE_DEFINED_POINT_MARKER_SYMBOL('plus');
#325=COLOUR_RGB('Medium Umber',0.372533760585946,0.313725490196078,0.270572976272221);
#326=COLOUR_RGB('Strong Stone',0.576470588235294,0.54508278019379,0.392156862745098);
#327=COLOUR_RGB('Light Gray',0.8,0.8,0.8);
#328=COLOUR_RGB('Medium Gray',0.490196078431373,0.490196078431373,0.490196078431373);
#329=AXIS2_PLACEMENT_3D('',#469,#371,#372);
#330=AXIS2_PLACEMENT_3D('',#479,#377,#378);
#331=AXIS2_PLACEMENT_3D('',#480,#379,#380);
#332=AXIS2_PLACEMENT_3D('',#481,#381,#382);
#333=AXIS2_PLACEMENT_3D('CIP',#482,#383,#384);
#334=AXIS2_PLACEMENT_3D('PCS',#483,#385,#386);
#335=AXIS2_PLACEMENT_3D('MCS',#484,#387,#388);
#336=AXIS2_PLACEMENT_3D('STEP_TEMP_1_1',#485,#389,#390);
#337=AXIS2_PLACEMENT_3D('',#486,#391,#392);
#338=AXIS2_PLACEMENT_3D('',#487,#393,#394);
#339=AXIS2_PLACEMENT_3D('',#488,#395,#396);
#340=AXIS2_PLACEMENT_3D('STEP_TEMP_1_2',#489,#397,#398);
#341=AXIS2_PLACEMENT_3D('',#490,#399,#400);
#342=AXIS2_PLACEMENT_3D('',#491,#401,#402);
#343=AXIS2_PLACEMENT_3D('',#495,#404,#405);
#344=AXIS2_PLACEMENT_3D('',#499,#407,#408);
#345=AXIS2_PLACEMENT_3D('',#500,#409,#410);
#346=AXIS2_PLACEMENT_3D('',#501,#411,#412);
#347=AXIS2_PLACEMENT_3D('',#502,#413,#414);
#348=AXIS2_PLACEMENT_3D('',#503,#415,#416);
#349=AXIS2_PLACEMENT_3D('',#504,#417,#418);
#350=AXIS2_PLACEMENT_3D('',#505,#419,#420);
#351=AXIS2_PLACEMENT_3D('',#509,#422,#423);
#352=AXIS2_PLACEMENT_3D('',#513,#425,#426);
#353=AXIS2_PLACEMENT_3D('',#514,#427,#428);
#354=AXIS2_PLACEMENT_3D('',#515,#429,#430);
#355=AXIS2_PLACEMENT_3D('',#516,#431,#432);
#356=AXIS2_PLACEMENT_3D('',#517,#433,#434);
#357=AXIS2_PLACEMENT_3D('',#518,#435,#436);
#358=AXIS2_PLACEMENT_3D('',#521,#438,#439);
#359=AXIS2_PLACEMENT_3D('',#524,#441,#442);
#360=AXIS2_PLACEMENT_3D('',#525,#443,#444);
#361=AXIS2_PLACEMENT_3D('',#526,#445,#446);
#362=AXIS2_PLACEMENT_3D('',#527,#447,#448);
#363=AXIS2_PLACEMENT_3D('',#532,#451,#452);
#364=AXIS2_PLACEMENT_3D('',#533,#453,#454);
#365=AXIS2_PLACEMENT_3D('',#534,#455,#456);
#366=AXIS2_PLACEMENT_3D('',#537,#458,#459);
#367=AXIS2_PLACEMENT_3D('',#540,#461,#462);
#368=AXIS2_PLACEMENT_3D('',#541,#463,#464);
#369=AXIS2_PLACEMENT_3D('',#542,#465,#466);
#370=AXIS2_PLACEMENT_3D('',#543,#467,#468);
#371=DIRECTION('',(0.,0.,1.));
#372=DIRECTION('',(1.,0.,0.));
#373=DIRECTION('',(-1.,0.,0.));
#374=DIRECTION('',(0.,0.,1.));
#375=DIRECTION('',(1.,0.,0.));
#376=DIRECTION('',(0.,0.,-1.));
#377=DIRECTION('',(0.,0.,1.));
#378=DIRECTION('',(1.,0.,0.));
#379=DIRECTION('',(0.,0.,1.));
#380=DIRECTION('',(1.,0.,0.));
#381=DIRECTION('',(0.,0.,1.));
#382=DIRECTION('',(1.,0.,0.));
#383=DIRECTION('',(0.,0.,1.));
#384=DIRECTION('',(1.,0.,0.));
#385=DIRECTION('',(0.,0.,1.));
#386=DIRECTION('',(1.,0.,0.));
#387=DIRECTION('',(0.,0.,1.));
#388=DIRECTION('',(1.,0.,0.));
#389=DIRECTION('',(0.,0.,1.));
#390=DIRECTION('',(1.,0.,0.));
#391=DIRECTION('',(0.,0.,1.));
#392=DIRECTION('',(1.,0.,0.));
#393=DIRECTION('',(0.,0.,1.));
#394=DIRECTION('',(1.,0.,0.));
#395=DIRECTION('',(0.,0.,1.));
#396=DIRECTION('',(1.,0.,0.));
#397=DIRECTION('',(0.,0.,1.));
#398=DIRECTION('',(1.,0.,0.));
#399=DIRECTION('',(0.,0.,1.));
#400=DIRECTION('',(1.,0.,0.));
#401=DIRECTION('',(0.,0.,1.));
#402=DIRECTION('',(1.,0.,0.));
#403=DIRECTION('',(0.,0.,-1.));
#404=DIRECTION('',(0.,0.,1.));
#405=DIRECTION('',(0.,-1.,0.));
#406=DIRECTION('',(0.,0.,-1.));
#407=DIRECTION('',(0.,0.,-1.));
#408=DIRECTION('',(0.,1.,0.));
#409=DIRECTION('',(0.,0.,-1.));
#410=DIRECTION('',(0.,1.,0.));
#411=DIRECTION('',(0.,0.,-1.));
#412=DIRECTION('',(0.,-1.,0.));
#413=DIRECTION('',(0.,0.,-1.));
#414=DIRECTION('',(1.,0.,0.));
#415=DIRECTION('',(0.,0.,1.));
#416=DIRECTION('',(0.,1.,0.));
#417=DIRECTION('',(0.,0.,-1.));
#418=DIRECTION('',(0.,1.,0.));
#419=DIRECTION('',(0.,0.,-1.));
#420=DIRECTION('',(0.,1.,0.));
#421=DIRECTION('',(0.,0.,-1.));
#422=DIRECTION('',(0.,0.,-1.));
#423=DIRECTION('',(0.,1.,0.));
#424=DIRECTION('',(0.,0.,-1.));
#425=DIRECTION('',(0.,0.,1.));
#426=DIRECTION('',(0.,-1.,0.));
#427=DIRECTION('',(0.,0.,-1.));
#428=DIRECTION('',(0.,1.,0.));
#429=DIRECTION('',(0.,0.,1.));
#430=DIRECTION('',(0.,1.,0.));
#431=DIRECTION('',(0.,0.,1.));
#432=DIRECTION('',(-1.,0.,0.));
#433=DIRECTION('',(0.,0.,-1.));
#434=DIRECTION('',(0.,-1.,0.));
#435=DIRECTION('',(0.,0.,-1.));
#436=DIRECTION('',(0.,1.,0.));
#437=DIRECTION('',(0.,-0.258819045102493,0.965925826289076));
#438=DIRECTION('',(0.,0.,1.));
#439=DIRECTION('',(0.,1.,0.));
#440=DIRECTION('',(0.,0.258819045102493,0.965925826289076));
#441=DIRECTION('',(0.,0.,1.));
#442=DIRECTION('',(0.,-1.,-3.20859827671326E-16));
#443=DIRECTION('',(0.,0.,1.));
#444=DIRECTION('',(0.,-1.,0.));
#445=DIRECTION('',(0.,0.,1.));
#446=DIRECTION('',(0.,-1.,-3.20859827671326E-16));
#447=DIRECTION('',(0.,0.,-1.));
#448=DIRECTION('',(0.,1.,0.));
#449=DIRECTION('',(0.,0.,-1.));
#450=DIRECTION('',(0.,0.,-1.));
#451=DIRECTION('',(0.,0.,-1.));
#452=DIRECTION('',(0.,1.,0.));
#453=DIRECTION('',(0.,0.,-1.));
#454=DIRECTION('',(0.,-1.,0.));
#455=DIRECTION('',(0.,0.,-1.));
#456=DIRECTION('',(0.,1.,0.));
#457=DIRECTION('',(0.,0.707106781186498,0.707106781186598));
#458=DIRECTION('',(0.,0.,-1.));
#459=DIRECTION('',(0.,-1.,0.));
#460=DIRECTION('',(0.,-0.707106781186498,0.707106781186598));
#461=DIRECTION('',(0.,0.,-1.));
#462=DIRECTION('',(0.,1.,-3.46010466934638E-17));
#463=DIRECTION('',(0.,0.,-1.));
#464=DIRECTION('',(0.,1.,0.));
#465=DIRECTION('',(0.,0.,-1.));
#466=DIRECTION('',(0.,1.,-3.46010466934638E-17));
#467=DIRECTION('',(0.,0.,-1.));
#468=DIRECTION('',(0.,1.,0.));
#469=CARTESIAN_POINT('',(0.,0.,0.));
#470=CARTESIAN_POINT('',(0.,0.,0.));
#471=CARTESIAN_POINT('',(0.,0.,55.));
#472=CARTESIAN_POINT('',(0.,0.,22.7));
#473=CARTESIAN_POINT('',(0.,0.,0.));
#474=CARTESIAN_POINT('',(0.,0.,0.));
#475=CARTESIAN_POINT('',(0.,0.,0.));
#476=CARTESIAN_POINT('',(-1.75,0.,0.));
#477=CARTESIAN_POINT('',(-1.75,0.,7.));
#478=CARTESIAN_POINT('',(0.,0.,7.));
#479=CARTESIAN_POINT('',(0.,0.,0.));
#480=CARTESIAN_POINT('',(0.,0.,0.));
#481=CARTESIAN_POINT('',(0.,0.,0.));
#482=CARTESIAN_POINT('',(0.,0.,0.));
#483=CARTESIAN_POINT('',(0.,0.,55.));
#484=CARTESIAN_POINT('',(0.,0.,22.7));
#485=CARTESIAN_POINT('',(0.,0.,0.));
#486=CARTESIAN_POINT('',(0.,0.,0.));
#487=CARTESIAN_POINT('',(0.,0.,0.));
#488=CARTESIAN_POINT('',(0.,0.,0.));
#489=CARTESIAN_POINT('',(0.,0.,0.));
#490=CARTESIAN_POINT('',(0.,0.,0.));
#491=CARTESIAN_POINT('',(0.,0.,0.));
#492=CARTESIAN_POINT('',(0.,-1.75,7.));
#493=CARTESIAN_POINT('',(0.,-1.75,7.));
#494=CARTESIAN_POINT('',(0.,-1.75,0.));
#495=CARTESIAN_POINT('',(0.,0.,0.));
#496=CARTESIAN_POINT('',(0.,1.75,0.));
#497=CARTESIAN_POINT('',(0.,1.75,7.));
#498=CARTESIAN_POINT('',(0.,1.75,7.));
#499=CARTESIAN_POINT('',(0.,0.,7.));
#500=CARTESIAN_POINT('',(0.,0.,57.75));
#501=CARTESIAN_POINT('',(0.,0.,7.));
#502=CARTESIAN_POINT('',(150.,150.,7.));
#503=CARTESIAN_POINT('',(0.,0.,0.));
#504=CARTESIAN_POINT('',(0.,0.,57.75));
#505=CARTESIAN_POINT('',(0.,-1.009947922692E-14,0.));
#506=CARTESIAN_POINT('',(0.,1.75,16.03493649054));
#507=CARTESIAN_POINT('',(0.,1.75,16.03493649054));
#508=CARTESIAN_POINT('',(0.,1.75,7.));
#509=CARTESIAN_POINT('',(0.,0.,16.03493649054));
#510=CARTESIAN_POINT('',(0.,-1.75,16.03493649054));
#511=CARTESIAN_POINT('',(0.,-1.75,16.03493649054));
#512=CARTESIAN_POINT('',(0.,-1.75,7.));
#513=CARTESIAN_POINT('',(0.,0.,7.));
#514=CARTESIAN_POINT('',(0.,0.,57.75));
#515=CARTESIAN_POINT('',(0.,0.,7.));
#516=CARTESIAN_POINT('',(-150.,150.,7.));
#517=CARTESIAN_POINT('',(0.,0.,16.03493649054));
#518=CARTESIAN_POINT('',(0.,0.,57.75));
#519=CARTESIAN_POINT('',(0.,-3.,20.7));
#520=CARTESIAN_POINT('',(0.,-3.,20.7));
#521=CARTESIAN_POINT('',(0.,0.,20.7));
#522=CARTESIAN_POINT('',(0.,3.,20.7));
#523=CARTESIAN_POINT('',(0.,3.,20.7));
#524=CARTESIAN_POINT('',(0.,0.,18.36746824527));
#525=CARTESIAN_POINT('',(0.,0.,20.7));
#526=CARTESIAN_POINT('',(0.,0.,18.36746824527));
#527=CARTESIAN_POINT('',(0.,0.,54.4));
#528=CARTESIAN_POINT('',(0.,3.,54.4));
#529=CARTESIAN_POINT('',(0.,-3.,54.4));
#530=CARTESIAN_POINT('',(0.,-3.,54.4));
#531=CARTESIAN_POINT('',(0.,3.,54.4));
#532=CARTESIAN_POINT('',(0.,0.,57.75));
#533=CARTESIAN_POINT('',(0.,0.,54.4));
#534=CARTESIAN_POINT('',(0.,0.,57.75));
#535=CARTESIAN_POINT('',(0.,-2.4,55.));
#536=CARTESIAN_POINT('',(0.,-2.4,55.));
#537=CARTESIAN_POINT('',(0.,0.,55.));
#538=CARTESIAN_POINT('',(0.,2.4,55.));
#539=CARTESIAN_POINT('',(0.,2.4,55.));
#540=CARTESIAN_POINT('',(0.,0.,54.7));
#541=CARTESIAN_POINT('',(0.,0.,55.));
#542=CARTESIAN_POINT('',(0.,0.,54.7));
#543=CARTESIAN_POINT('',(0.,0.,55.));
#544=MECHANICAL_DESIGN_GEOMETRIC_PRESENTATION_REPRESENTATION('',(#267,#268,
#269,#270,#271,#272,#273,#274,#275,#276,#277,#278,#279,#280,#281,#282,#283,
#284,#285,#286,#287,#288,#289,#290),#545);
#545=(
GEOMETRIC_REPRESENTATION_CONTEXT(3)
GLOBAL_UNCERTAINTY_ASSIGNED_CONTEXT((#546))
GLOBAL_UNIT_ASSIGNED_CONTEXT((#552,#548,#547))
REPRESENTATION_CONTEXT('MFE0350X02S060','TOP_LEVEL_ASSEMBLY_PART')
);
#546=UNCERTAINTY_MEASURE_WITH_UNIT(LENGTH_MEASURE(2.E-5),#552,
'DISTANCE_ACCURACY_VALUE','Maximum Tolerance applied to model');
#547=(
NAMED_UNIT(*)
SI_UNIT($,.STERADIAN.)
SOLID_ANGLE_UNIT()
);
#548=(
CONVERSION_BASED_UNIT('DEGREE',#550)
NAMED_UNIT(#549)
PLANE_ANGLE_UNIT()
);
#549=DIMENSIONAL_EXPONENTS(0.,0.,0.,0.,0.,0.,0.);
#550=PLANE_ANGLE_MEASURE_WITH_UNIT(PLANE_ANGLE_MEASURE(0.0174532925),#551);
#551=(
NAMED_UNIT(*)
PLANE_ANGLE_UNIT()
SI_UNIT($,.RADIAN.)
);
#552=(
LENGTH_UNIT()
NAMED_UNIT(*)
SI_UNIT(.MILLI.,.METRE.)
);
ENDSEC;
END-ISO-10303-21;
