ISO-10303-21;
HEADER;
/* Generated by software containing ST-Developer
 * from STEP Tools, Inc. (www.steptools.com) 
 */
/* OPTION: using custom schema-name function */

FILE_DESCRIPTION(
/* description */ (''),
/* implementation_level */ '2;1');

FILE_NAME(
/* name */ 'VFHVRBD1-4N5DR0_06.stp',
/* time_stamp */ '2016-11-10T13:25:18+09:00',
/* author */ (''),
/* organization */ (''),
/* preprocessor_version */ 'ST-DEVELOPER v16',
/* originating_system */ 'SIEMENS PLM Software NX 10.0',
/* authorisation */ '');

FILE_SCHEMA (('AUTOMOTIVE_DESIGN { 1 0 10303 214 3 1 1 1 }'));
ENDSEC;

DATA;
#10=CONSTRUCTIVE_GEOMETRY_REPRESENTATION_RELATIONSHIP(
'supplemental geometry','',#24,#11);
#11=CONSTRUCTIVE_GEOMETRY_REPRESENTATION('supplemental geometry',(#344,
#345,#346,#347,#348,#349,#350,#351,#352,#353,#354,#355),#599);
#12=SHAPE_REPRESENTATION_RELATIONSHIP('None',
'relationship between VFHVRBD1-4N5DR0_06-None and VFHVRBD1-4N5DR0_06-N
one',#24,#13);
#13=ADVANCED_BREP_SHAPE_REPRESENTATION('VFHVRBD1-4N5DR0_06-None',(#35,#36),
#599);
#14=SHAPE_DEFINITION_REPRESENTATION(#15,#24);
#15=PRODUCT_DEFINITION_SHAPE('','SHAPE FOR VFHVRBD1-4N5DR0_06_ASM.',#16);
#16=PRODUCT_DEFINITION('part definition','',#18,#17);
#17=PRODUCT_DEFINITION_CONTEXT('part definition',#23,'design');
#18=PRODUCT_DEFINITION_FORMATION_WITH_SPECIFIED_SOURCE(' ',' ',#20,
 .NOT_KNOWN.);
#19=PRODUCT_RELATED_PRODUCT_CATEGORY('part','',(#20));
#20=PRODUCT('VFHVRBD1-4N5DR0_06_ASM','VFHVRBD1-4N5DR0_06_ASM',
'NOT SPECIFIED',(#21));
#21=PRODUCT_CONTEXT('',#23,'mechanical');
#22=APPLICATION_PROTOCOL_DEFINITION('international standard',
'automotive_design',2010,#23);
#23=APPLICATION_CONTEXT(
'core data for automotive mechanical design processes');
#24=SHAPE_REPRESENTATION('VFHVRBD1-4N5DR0_06-None',(#343),#599);
#25=SURFACE_STYLE_USAGE(.BOTH.,#27);
#26=SURFACE_STYLE_USAGE(.BOTH.,#28);
#27=SURFACE_SIDE_STYLE('',(#29));
#28=SURFACE_SIDE_STYLE('',(#30));
#29=SURFACE_STYLE_FILL_AREA(#31);
#30=SURFACE_STYLE_FILL_AREA(#32);
#31=FILL_AREA_STYLE('',(#33));
#32=FILL_AREA_STYLE('',(#34));
#33=FILL_AREA_STYLE_COLOUR('',#329);
#34=FILL_AREA_STYLE_COLOUR('',#330);
#35=MANIFOLD_SOLID_BREP('CUT',#37);
#36=MANIFOLD_SOLID_BREP('NOCUT',#38);
#37=CLOSED_SHELL('',(#50,#51,#52,#53,#54,#55,#56));
#38=CLOSED_SHELL('',(#57,#58,#59,#60,#61,#62,#63,#64,#65,#66,#67,#68));
#39=PLANE('',#369);
#40=PLANE('',#375);
#41=PLANE('',#394);
#42=CYLINDRICAL_SURFACE('',#367,3.175);
#43=CYLINDRICAL_SURFACE('',#370,3.175);
#44=CYLINDRICAL_SURFACE('',#379,3.1);
#45=CYLINDRICAL_SURFACE('',#381,3.1);
#46=CYLINDRICAL_SURFACE('',#387,3.175);
#47=CYLINDRICAL_SURFACE('',#389,3.175);
#48=TOROIDAL_SURFACE('',#363,1.651,1.524);
#49=TOROIDAL_SURFACE('',#365,1.651,1.524);
#50=ADVANCED_FACE('',(#77),#69,.F.);
#51=ADVANCED_FACE('',(#78),#70,.F.);
#52=ADVANCED_FACE('',(#79),#48,.T.);
#53=ADVANCED_FACE('',(#80),#49,.T.);
#54=ADVANCED_FACE('',(#81),#42,.T.);
#55=ADVANCED_FACE('',(#82),#39,.F.);
#56=ADVANCED_FACE('',(#83),#43,.T.);
#57=ADVANCED_FACE('',(#84),#71,.T.);
#58=ADVANCED_FACE('',(#85),#40,.F.);
#59=ADVANCED_FACE('',(#86),#72,.T.);
#60=ADVANCED_FACE('',(#87),#44,.T.);
#61=ADVANCED_FACE('',(#88),#45,.T.);
#62=ADVANCED_FACE('',(#89),#73,.T.);
#63=ADVANCED_FACE('',(#90),#74,.T.);
#64=ADVANCED_FACE('',(#91),#46,.T.);
#65=ADVANCED_FACE('',(#92),#47,.T.);
#66=ADVANCED_FACE('',(#93),#75,.T.);
#67=ADVANCED_FACE('',(#94),#76,.T.);
#68=ADVANCED_FACE('',(#95),#41,.F.);
#69=CONICAL_SURFACE('',#357,0.84201,86.);
#70=CONICAL_SURFACE('',#359,0.84201,86.);
#71=CONICAL_SURFACE('',#373,3.1375,45.);
#72=CONICAL_SURFACE('',#377,3.1375,45.);
#73=CONICAL_SURFACE('',#383,3.1375,45.);
#74=CONICAL_SURFACE('',#385,3.1375,45.);
#75=CONICAL_SURFACE('',#391,2.675,45.);
#76=CONICAL_SURFACE('',#393,2.675,45.);
#77=FACE_OUTER_BOUND('',#96,.T.);
#78=FACE_OUTER_BOUND('',#97,.T.);
#79=FACE_OUTER_BOUND('',#98,.T.);
#80=FACE_OUTER_BOUND('',#99,.T.);
#81=FACE_OUTER_BOUND('',#100,.T.);
#82=FACE_OUTER_BOUND('',#101,.T.);
#83=FACE_OUTER_BOUND('',#102,.T.);
#84=FACE_OUTER_BOUND('',#103,.T.);
#85=FACE_OUTER_BOUND('',#104,.T.);
#86=FACE_OUTER_BOUND('',#105,.T.);
#87=FACE_OUTER_BOUND('',#106,.T.);
#88=FACE_OUTER_BOUND('',#107,.T.);
#89=FACE_OUTER_BOUND('',#108,.T.);
#90=FACE_OUTER_BOUND('',#109,.T.);
#91=FACE_OUTER_BOUND('',#110,.T.);
#92=FACE_OUTER_BOUND('',#111,.T.);
#93=FACE_OUTER_BOUND('',#112,.T.);
#94=FACE_OUTER_BOUND('',#113,.T.);
#95=FACE_OUTER_BOUND('',#114,.T.);
#96=EDGE_LOOP('',(#143,#144,#145));
#97=EDGE_LOOP('',(#146,#147,#148));
#98=EDGE_LOOP('',(#149,#150,#151,#152));
#99=EDGE_LOOP('',(#153,#154,#155,#156));
#100=EDGE_LOOP('',(#157,#158,#159,#160));
#101=EDGE_LOOP('',(#161,#162));
#102=EDGE_LOOP('',(#163,#164,#165,#166));
#103=EDGE_LOOP('',(#167,#168,#169,#170));
#104=EDGE_LOOP('',(#171,#172));
#105=EDGE_LOOP('',(#173,#174,#175,#176));
#106=EDGE_LOOP('',(#177,#178,#179,#180));
#107=EDGE_LOOP('',(#181,#182,#183,#184));
#108=EDGE_LOOP('',(#185,#186,#187,#188));
#109=EDGE_LOOP('',(#189,#190,#191,#192));
#110=EDGE_LOOP('',(#193,#194,#195,#196));
#111=EDGE_LOOP('',(#197,#198,#199,#200));
#112=EDGE_LOOP('',(#201,#202,#203,#204));
#113=EDGE_LOOP('',(#205,#206,#207,#208));
#114=EDGE_LOOP('',(#209,#210));
#115=LINE('',#529,#129);
#116=LINE('',#531,#130);
#117=LINE('',#543,#131);
#118=LINE('',#545,#132);
#119=LINE('',#552,#133);
#120=LINE('',#557,#134);
#121=LINE('',#565,#135);
#122=LINE('',#569,#136);
#123=LINE('',#576,#137);
#124=LINE('',#577,#138);
#125=LINE('',#581,#139);
#126=LINE('',#585,#140);
#127=LINE('',#592,#141);
#128=LINE('',#593,#142);
#129=VECTOR('',#423,1.);
#130=VECTOR('',#424,1.);
#131=VECTOR('',#443,1.);
#132=VECTOR('',#444,1.);
#133=VECTOR('',#455,1.);
#134=VECTOR('',#458,1.);
#135=VECTOR('',#471,1.);
#136=VECTOR('',#474,1.);
#137=VECTOR('',#483,1.);
#138=VECTOR('',#484,1.);
#139=VECTOR('',#491,1.);
#140=VECTOR('',#494,1.);
#141=VECTOR('',#503,1.);
#142=VECTOR('',#504,1.);
#143=ORIENTED_EDGE('',*,*,#230,.T.);
#144=ORIENTED_EDGE('',*,*,#231,.T.);
#145=ORIENTED_EDGE('',*,*,#232,.F.);
#146=ORIENTED_EDGE('',*,*,#231,.F.);
#147=ORIENTED_EDGE('',*,*,#233,.T.);
#148=ORIENTED_EDGE('',*,*,#232,.T.);
#149=ORIENTED_EDGE('',*,*,#233,.F.);
#150=ORIENTED_EDGE('',*,*,#234,.T.);
#151=ORIENTED_EDGE('',*,*,#235,.F.);
#152=ORIENTED_EDGE('',*,*,#236,.F.);
#153=ORIENTED_EDGE('',*,*,#237,.F.);
#154=ORIENTED_EDGE('',*,*,#234,.F.);
#155=ORIENTED_EDGE('',*,*,#230,.F.);
#156=ORIENTED_EDGE('',*,*,#236,.T.);
#157=ORIENTED_EDGE('',*,*,#238,.T.);
#158=ORIENTED_EDGE('',*,*,#237,.T.);
#159=ORIENTED_EDGE('',*,*,#239,.F.);
#160=ORIENTED_EDGE('',*,*,#240,.T.);
#161=ORIENTED_EDGE('',*,*,#241,.F.);
#162=ORIENTED_EDGE('',*,*,#240,.F.);
#163=ORIENTED_EDGE('',*,*,#239,.T.);
#164=ORIENTED_EDGE('',*,*,#235,.T.);
#165=ORIENTED_EDGE('',*,*,#238,.F.);
#166=ORIENTED_EDGE('',*,*,#241,.T.);
#167=ORIENTED_EDGE('',*,*,#242,.F.);
#168=ORIENTED_EDGE('',*,*,#243,.F.);
#169=ORIENTED_EDGE('',*,*,#244,.T.);
#170=ORIENTED_EDGE('',*,*,#245,.T.);
#171=ORIENTED_EDGE('',*,*,#246,.F.);
#172=ORIENTED_EDGE('',*,*,#245,.F.);
#173=ORIENTED_EDGE('',*,*,#244,.F.);
#174=ORIENTED_EDGE('',*,*,#247,.F.);
#175=ORIENTED_EDGE('',*,*,#242,.T.);
#176=ORIENTED_EDGE('',*,*,#246,.T.);
#177=ORIENTED_EDGE('',*,*,#247,.T.);
#178=ORIENTED_EDGE('',*,*,#248,.T.);
#179=ORIENTED_EDGE('',*,*,#249,.T.);
#180=ORIENTED_EDGE('',*,*,#250,.F.);
#181=ORIENTED_EDGE('',*,*,#251,.T.);
#182=ORIENTED_EDGE('',*,*,#248,.F.);
#183=ORIENTED_EDGE('',*,*,#243,.T.);
#184=ORIENTED_EDGE('',*,*,#250,.T.);
#185=ORIENTED_EDGE('',*,*,#252,.F.);
#186=ORIENTED_EDGE('',*,*,#253,.T.);
#187=ORIENTED_EDGE('',*,*,#251,.F.);
#188=ORIENTED_EDGE('',*,*,#254,.F.);
#189=ORIENTED_EDGE('',*,*,#249,.F.);
#190=ORIENTED_EDGE('',*,*,#253,.F.);
#191=ORIENTED_EDGE('',*,*,#255,.F.);
#192=ORIENTED_EDGE('',*,*,#254,.T.);
#193=ORIENTED_EDGE('',*,*,#255,.T.);
#194=ORIENTED_EDGE('',*,*,#256,.T.);
#195=ORIENTED_EDGE('',*,*,#257,.T.);
#196=ORIENTED_EDGE('',*,*,#258,.F.);
#197=ORIENTED_EDGE('',*,*,#259,.T.);
#198=ORIENTED_EDGE('',*,*,#256,.F.);
#199=ORIENTED_EDGE('',*,*,#252,.T.);
#200=ORIENTED_EDGE('',*,*,#258,.T.);
#201=ORIENTED_EDGE('',*,*,#260,.T.);
#202=ORIENTED_EDGE('',*,*,#261,.T.);
#203=ORIENTED_EDGE('',*,*,#259,.F.);
#204=ORIENTED_EDGE('',*,*,#262,.F.);
#205=ORIENTED_EDGE('',*,*,#257,.F.);
#206=ORIENTED_EDGE('',*,*,#261,.F.);
#207=ORIENTED_EDGE('',*,*,#263,.T.);
#208=ORIENTED_EDGE('',*,*,#262,.T.);
#209=ORIENTED_EDGE('',*,*,#260,.F.);
#210=ORIENTED_EDGE('',*,*,#263,.F.);
#211=VERTEX_POINT('',#527);
#212=VERTEX_POINT('',#528);
#213=VERTEX_POINT('',#530);
#214=VERTEX_POINT('',#536);
#215=VERTEX_POINT('',#538);
#216=VERTEX_POINT('',#544);
#217=VERTEX_POINT('',#546);
#218=VERTEX_POINT('',#553);
#219=VERTEX_POINT('',#554);
#220=VERTEX_POINT('',#556);
#221=VERTEX_POINT('',#558);
#222=VERTEX_POINT('',#566);
#223=VERTEX_POINT('',#568);
#224=VERTEX_POINT('',#574);
#225=VERTEX_POINT('',#575);
#226=VERTEX_POINT('',#582);
#227=VERTEX_POINT('',#584);
#228=VERTEX_POINT('',#590);
#229=VERTEX_POINT('',#591);
#230=EDGE_CURVE('',#211,#212,#264,.T.);
#231=EDGE_CURVE('',#212,#213,#115,.T.);
#232=EDGE_CURVE('',#211,#213,#116,.T.);
#233=EDGE_CURVE('',#212,#211,#265,.T.);
#234=EDGE_CURVE('',#212,#214,#266,.T.);
#235=EDGE_CURVE('',#215,#214,#267,.T.);
#236=EDGE_CURVE('',#211,#215,#268,.T.);
#237=EDGE_CURVE('',#214,#215,#269,.T.);
#238=EDGE_CURVE('',#216,#214,#117,.T.);
#239=EDGE_CURVE('',#217,#215,#118,.T.);
#240=EDGE_CURVE('',#217,#216,#270,.T.);
#241=EDGE_CURVE('',#216,#217,#271,.T.);
#242=EDGE_CURVE('',#218,#219,#119,.T.);
#243=EDGE_CURVE('',#220,#218,#272,.T.);
#244=EDGE_CURVE('',#220,#221,#120,.T.);
#245=EDGE_CURVE('',#221,#219,#273,.T.);
#246=EDGE_CURVE('',#219,#221,#274,.T.);
#247=EDGE_CURVE('',#218,#220,#275,.T.);
#248=EDGE_CURVE('',#220,#222,#121,.T.);
#249=EDGE_CURVE('',#222,#223,#276,.T.);
#250=EDGE_CURVE('',#218,#223,#122,.T.);
#251=EDGE_CURVE('',#223,#222,#277,.T.);
#252=EDGE_CURVE('',#224,#225,#278,.T.);
#253=EDGE_CURVE('',#224,#222,#123,.T.);
#254=EDGE_CURVE('',#225,#223,#124,.T.);
#255=EDGE_CURVE('',#225,#224,#279,.T.);
#256=EDGE_CURVE('',#224,#226,#125,.T.);
#257=EDGE_CURVE('',#226,#227,#280,.T.);
#258=EDGE_CURVE('',#225,#227,#126,.T.);
#259=EDGE_CURVE('',#227,#226,#281,.T.);
#260=EDGE_CURVE('',#228,#229,#282,.T.);
#261=EDGE_CURVE('',#229,#226,#127,.T.);
#262=EDGE_CURVE('',#228,#227,#128,.T.);
#263=EDGE_CURVE('',#229,#228,#283,.T.);
#264=CIRCLE('',#356,1.651);
#265=CIRCLE('',#358,1.651);
#266=CIRCLE('',#360,1.524);
#267=CIRCLE('',#361,3.175);
#268=CIRCLE('',#362,1.524);
#269=CIRCLE('',#364,3.175);
#270=CIRCLE('',#366,3.175);
#271=CIRCLE('',#368,3.175);
#272=CIRCLE('',#371,3.1);
#273=CIRCLE('',#372,3.175);
#274=CIRCLE('',#374,3.175);
#275=CIRCLE('',#376,3.1);
#276=CIRCLE('',#378,3.1);
#277=CIRCLE('',#380,3.1);
#278=CIRCLE('',#382,3.175);
#279=CIRCLE('',#384,3.175);
#280=CIRCLE('',#386,3.175);
#281=CIRCLE('',#388,3.175);
#282=CIRCLE('',#390,2.175);
#283=CIRCLE('',#392,2.175);
#284=PRESENTATION_LAYER_ASSIGNMENT('1','Layer 1',(#344,#345,#346,#351,#352,
#353,#354,#355,#35,#36));
#285=PRESENTATION_LAYER_ASSIGNMENT('2','Layer 2',(#347,#348,#349));
#286=PRESENTATION_LAYER_ASSIGNMENT('3','Layer 3',(#350));
#287=STYLED_ITEM('',(#301),#344);
#288=STYLED_ITEM('',(#302),#345);
#289=STYLED_ITEM('',(#303),#346);
#290=STYLED_ITEM('',(#304),#347);
#291=STYLED_ITEM('',(#305),#348);
#292=STYLED_ITEM('',(#306),#349);
#293=STYLED_ITEM('',(#307),#350);
#294=STYLED_ITEM('',(#308),#351);
#295=STYLED_ITEM('',(#309),#352);
#296=STYLED_ITEM('',(#310),#353);
#297=STYLED_ITEM('',(#311),#354);
#298=STYLED_ITEM('',(#312),#355);
#299=STYLED_ITEM('',(#313),#35);
#300=STYLED_ITEM('',(#314),#36);
#301=PRESENTATION_STYLE_ASSIGNMENT((#315));
#302=PRESENTATION_STYLE_ASSIGNMENT((#316));
#303=PRESENTATION_STYLE_ASSIGNMENT((#317));
#304=PRESENTATION_STYLE_ASSIGNMENT((#318));
#305=PRESENTATION_STYLE_ASSIGNMENT((#319));
#306=PRESENTATION_STYLE_ASSIGNMENT((#320));
#307=PRESENTATION_STYLE_ASSIGNMENT((#321));
#308=PRESENTATION_STYLE_ASSIGNMENT((#322));
#309=PRESENTATION_STYLE_ASSIGNMENT((#323));
#310=PRESENTATION_STYLE_ASSIGNMENT((#324));
#311=PRESENTATION_STYLE_ASSIGNMENT((#325));
#312=PRESENTATION_STYLE_ASSIGNMENT((#326));
#313=PRESENTATION_STYLE_ASSIGNMENT((#25));
#314=PRESENTATION_STYLE_ASSIGNMENT((#26));
#315=CURVE_STYLE('',#331,POSITIVE_LENGTH_MEASURE(0.13),#327);
#316=CURVE_STYLE('',#332,POSITIVE_LENGTH_MEASURE(0.13),#327);
#317=CURVE_STYLE('',#333,POSITIVE_LENGTH_MEASURE(0.13),#327);
#318=CURVE_STYLE('',#334,POSITIVE_LENGTH_MEASURE(0.13),#328);
#319=CURVE_STYLE('',#335,POSITIVE_LENGTH_MEASURE(0.13),#328);
#320=CURVE_STYLE('',#336,POSITIVE_LENGTH_MEASURE(0.18),#327);
#321=CURVE_STYLE('',#337,POSITIVE_LENGTH_MEASURE(0.13),#328);
#322=CURVE_STYLE('',#338,POSITIVE_LENGTH_MEASURE(0.13),#327);
#323=CURVE_STYLE('',#339,POSITIVE_LENGTH_MEASURE(0.13),#327);
#324=CURVE_STYLE('',#340,POSITIVE_LENGTH_MEASURE(0.13),#328);
#325=CURVE_STYLE('',#341,POSITIVE_LENGTH_MEASURE(0.13),#327);
#326=CURVE_STYLE('',#342,POSITIVE_LENGTH_MEASURE(0.13),#327);
#327=COLOUR_RGB('Strong Stone',0.576470588235294,0.54508278019379,0.392156862745098);
#328=COLOUR_RGB('Brown',0.6,0.4,0.2);
#329=COLOUR_RGB('cutting part',0.8,0.8,0.8);
#330=COLOUR_RGB('non-cutting part and shank',0.501960784313725,0.501960784313725,
0.501960784313725);
#331=DRAUGHTING_PRE_DEFINED_CURVE_FONT('continuous');
#332=DRAUGHTING_PRE_DEFINED_CURVE_FONT('continuous');
#333=DRAUGHTING_PRE_DEFINED_CURVE_FONT('continuous');
#334=DRAUGHTING_PRE_DEFINED_CURVE_FONT('continuous');
#335=DRAUGHTING_PRE_DEFINED_CURVE_FONT('continuous');
#336=DRAUGHTING_PRE_DEFINED_CURVE_FONT('continuous');
#337=DRAUGHTING_PRE_DEFINED_CURVE_FONT('continuous');
#338=DRAUGHTING_PRE_DEFINED_CURVE_FONT('continuous');
#339=DRAUGHTING_PRE_DEFINED_CURVE_FONT('continuous');
#340=DRAUGHTING_PRE_DEFINED_CURVE_FONT('continuous');
#341=DRAUGHTING_PRE_DEFINED_CURVE_FONT('continuous');
#342=DRAUGHTING_PRE_DEFINED_CURVE_FONT('continuous');
#343=AXIS2_PLACEMENT_3D('',#513,#395,#396);
#344=AXIS2_PLACEMENT_3D('',#514,#397,#398);
#345=AXIS2_PLACEMENT_3D('',#515,#399,#400);
#346=AXIS2_PLACEMENT_3D('',#516,#401,#402);
#347=AXIS2_PLACEMENT_3D('CIP',#517,#403,#404);
#348=AXIS2_PLACEMENT_3D('PCS',#518,#405,#406);
#349=AXIS2_PLACEMENT_3D('MCS',#519,#407,#408);
#350=AXIS2_PLACEMENT_3D('TEMP_RN2_1',#520,#409,#410);
#351=AXIS2_PLACEMENT_3D('',#521,#411,#412);
#352=AXIS2_PLACEMENT_3D('',#522,#413,#414);
#353=AXIS2_PLACEMENT_3D('TEMP_RN2_2',#523,#415,#416);
#354=AXIS2_PLACEMENT_3D('',#524,#417,#418);
#355=AXIS2_PLACEMENT_3D('',#525,#419,#420);
#356=AXIS2_PLACEMENT_3D('',#526,#421,#422);
#357=AXIS2_PLACEMENT_3D('',#532,#425,#426);
#358=AXIS2_PLACEMENT_3D('',#533,#427,#428);
#359=AXIS2_PLACEMENT_3D('',#534,#429,#430);
#360=AXIS2_PLACEMENT_3D('',#535,#431,#432);
#361=AXIS2_PLACEMENT_3D('',#537,#433,#434);
#362=AXIS2_PLACEMENT_3D('',#539,#435,#436);
#363=AXIS2_PLACEMENT_3D('',#540,#437,#438);
#364=AXIS2_PLACEMENT_3D('',#541,#439,#440);
#365=AXIS2_PLACEMENT_3D('',#542,#441,#442);
#366=AXIS2_PLACEMENT_3D('',#547,#445,#446);
#367=AXIS2_PLACEMENT_3D('',#548,#447,#448);
#368=AXIS2_PLACEMENT_3D('',#549,#449,#450);
#369=AXIS2_PLACEMENT_3D('',#550,#451,#452);
#370=AXIS2_PLACEMENT_3D('',#551,#453,#454);
#371=AXIS2_PLACEMENT_3D('',#555,#456,#457);
#372=AXIS2_PLACEMENT_3D('',#559,#459,#460);
#373=AXIS2_PLACEMENT_3D('',#560,#461,#462);
#374=AXIS2_PLACEMENT_3D('',#561,#463,#464);
#375=AXIS2_PLACEMENT_3D('',#562,#465,#466);
#376=AXIS2_PLACEMENT_3D('',#563,#467,#468);
#377=AXIS2_PLACEMENT_3D('',#564,#469,#470);
#378=AXIS2_PLACEMENT_3D('',#567,#472,#473);
#379=AXIS2_PLACEMENT_3D('',#570,#475,#476);
#380=AXIS2_PLACEMENT_3D('',#571,#477,#478);
#381=AXIS2_PLACEMENT_3D('',#572,#479,#480);
#382=AXIS2_PLACEMENT_3D('',#573,#481,#482);
#383=AXIS2_PLACEMENT_3D('',#578,#485,#486);
#384=AXIS2_PLACEMENT_3D('',#579,#487,#488);
#385=AXIS2_PLACEMENT_3D('',#580,#489,#490);
#386=AXIS2_PLACEMENT_3D('',#583,#492,#493);
#387=AXIS2_PLACEMENT_3D('',#586,#495,#496);
#388=AXIS2_PLACEMENT_3D('',#587,#497,#498);
#389=AXIS2_PLACEMENT_3D('',#588,#499,#500);
#390=AXIS2_PLACEMENT_3D('',#589,#501,#502);
#391=AXIS2_PLACEMENT_3D('',#594,#505,#506);
#392=AXIS2_PLACEMENT_3D('',#595,#507,#508);
#393=AXIS2_PLACEMENT_3D('',#596,#509,#510);
#394=AXIS2_PLACEMENT_3D('',#597,#511,#512);
#395=DIRECTION('',(0.,0.,1.));
#396=DIRECTION('',(1.,0.,0.));
#397=DIRECTION('',(0.,0.,1.));
#398=DIRECTION('',(1.,0.,0.));
#399=DIRECTION('',(0.,0.,1.));
#400=DIRECTION('',(1.,0.,0.));
#401=DIRECTION('',(0.,0.,1.));
#402=DIRECTION('',(1.,0.,0.));
#403=DIRECTION('',(0.,0.,1.));
#404=DIRECTION('',(1.,0.,0.));
#405=DIRECTION('',(0.,0.,1.));
#406=DIRECTION('',(1.,0.,0.));
#407=DIRECTION('',(0.,0.,1.));
#408=DIRECTION('',(1.,0.,0.));
#409=DIRECTION('',(0.,0.,1.));
#410=DIRECTION('',(1.,0.,0.));
#411=DIRECTION('',(0.,0.,1.));
#412=DIRECTION('',(1.,0.,0.));
#413=DIRECTION('',(0.,0.,1.));
#414=DIRECTION('',(1.,0.,0.));
#415=DIRECTION('',(0.,0.,1.));
#416=DIRECTION('',(1.,0.,0.));
#417=DIRECTION('',(0.,0.,1.));
#418=DIRECTION('',(1.,0.,0.));
#419=DIRECTION('',(0.,0.,1.));
#420=DIRECTION('',(1.,0.,0.));
#421=DIRECTION('',(0.,0.,-1.));
#422=DIRECTION('',(0.,1.,0.));
#423=DIRECTION('',(0.,0.997564050259825,0.0697564737441217));
#424=DIRECTION('',(0.,-0.997564050259825,0.0697564737441217));
#425=DIRECTION('',(0.,0.,-1.));
#426=DIRECTION('',(0.,1.,2.81256353169666E-18));
#427=DIRECTION('',(0.,0.,-1.));
#428=DIRECTION('',(0.,-1.,0.));
#429=DIRECTION('',(0.,0.,-1.));
#430=DIRECTION('',(0.,1.,2.81256353169666E-18));
#431=DIRECTION('',(-1.,0.,0.));
#432=DIRECTION('',(0.,-1.,0.));
#433=DIRECTION('',(0.,0.,1.));
#434=DIRECTION('',(0.,1.,0.));
#435=DIRECTION('',(1.,0.,0.));
#436=DIRECTION('',(0.,1.,0.));
#437=DIRECTION('',(0.,0.,-1.));
#438=DIRECTION('',(0.,1.,0.));
#439=DIRECTION('',(0.,0.,1.));
#440=DIRECTION('',(0.,-1.,0.));
#441=DIRECTION('',(0.,0.,-1.));
#442=DIRECTION('',(0.,1.,0.));
#443=DIRECTION('',(0.,0.,-1.));
#444=DIRECTION('',(0.,0.,-1.));
#445=DIRECTION('',(0.,0.,-1.));
#446=DIRECTION('',(0.,1.,0.));
#447=DIRECTION('',(0.,0.,-1.));
#448=DIRECTION('',(0.,1.,0.));
#449=DIRECTION('',(0.,0.,-1.));
#450=DIRECTION('',(0.,-1.,0.));
#451=DIRECTION('',(0.,0.,-1.));
#452=DIRECTION('',(1.,0.,0.));
#453=DIRECTION('',(0.,0.,-1.));
#454=DIRECTION('',(0.,1.,0.));
#455=DIRECTION('',(0.,0.707106781186598,-0.707106781186498));
#456=DIRECTION('',(0.,0.,1.));
#457=DIRECTION('',(0.,-1.,0.));
#458=DIRECTION('',(0.,-0.707106781186598,-0.707106781186498));
#459=DIRECTION('',(0.,0.,1.));
#460=DIRECTION('',(0.,-1.,0.));
#461=DIRECTION('',(0.,0.,-1.));
#462=DIRECTION('',(0.,1.,2.93980626699787E-17));
#463=DIRECTION('',(0.,0.,1.));
#464=DIRECTION('',(0.,1.,0.));
#465=DIRECTION('',(0.,0.,1.));
#466=DIRECTION('',(-1.,0.,0.));
#467=DIRECTION('',(0.,0.,1.));
#468=DIRECTION('',(0.,1.,0.));
#469=DIRECTION('',(0.,0.,-1.));
#470=DIRECTION('',(0.,1.,2.93980626699787E-17));
#471=DIRECTION('',(0.,0.,1.));
#472=DIRECTION('',(0.,0.,-1.));
#473=DIRECTION('',(0.,-1.,0.));
#474=DIRECTION('',(0.,0.,1.));
#475=DIRECTION('',(0.,0.,-1.));
#476=DIRECTION('',(0.,1.,0.));
#477=DIRECTION('',(0.,0.,-1.));
#478=DIRECTION('',(0.,1.,0.));
#479=DIRECTION('',(0.,0.,-1.));
#480=DIRECTION('',(0.,1.,0.));
#481=DIRECTION('',(0.,0.,1.));
#482=DIRECTION('',(0.,-1.,0.));
#483=DIRECTION('',(0.,0.707106781186448,-0.707106781186647));
#484=DIRECTION('',(0.,-0.707106781186448,-0.707106781186647));
#485=DIRECTION('',(0.,0.,1.));
#486=DIRECTION('',(0.,-1.,7.60891033811213E-17));
#487=DIRECTION('',(0.,0.,1.));
#488=DIRECTION('',(0.,1.,0.));
#489=DIRECTION('',(0.,0.,1.));
#490=DIRECTION('',(0.,-1.,7.60891033811213E-17));
#491=DIRECTION('',(0.,0.,1.));
#492=DIRECTION('',(0.,0.,-1.));
#493=DIRECTION('',(0.,-1.,0.));
#494=DIRECTION('',(0.,0.,1.));
#495=DIRECTION('',(0.,0.,-1.));
#496=DIRECTION('',(0.,1.,0.));
#497=DIRECTION('',(0.,0.,-1.));
#498=DIRECTION('',(0.,1.,0.));
#499=DIRECTION('',(0.,0.,-1.));
#500=DIRECTION('',(0.,1.,0.));
#501=DIRECTION('',(0.,0.,-1.));
#502=DIRECTION('',(0.,1.,0.));
#503=DIRECTION('',(0.,-0.707106781186598,-0.707106781186498));
#504=DIRECTION('',(0.,0.707106781186598,-0.707106781186498));
#505=DIRECTION('',(0.,0.,-1.));
#506=DIRECTION('',(0.,1.,-1.38407637647438E-17));
#507=DIRECTION('',(0.,0.,-1.));
#508=DIRECTION('',(0.,-1.,0.));
#509=DIRECTION('',(0.,0.,-1.));
#510=DIRECTION('',(0.,1.,-1.38407637647438E-17));
#511=DIRECTION('',(0.,0.,-1.));
#512=DIRECTION('',(0.,1.,0.));
#513=CARTESIAN_POINT('',(0.,0.,0.));
#514=CARTESIAN_POINT('',(0.,0.,0.));
#515=CARTESIAN_POINT('',(0.,0.,0.));
#516=CARTESIAN_POINT('',(0.,0.,0.));
#517=CARTESIAN_POINT('',(0.,0.,0.));
#518=CARTESIAN_POINT('',(0.,0.,76.2));
#519=CARTESIAN_POINT('',(0.,0.,57.15));
#520=CARTESIAN_POINT('',(0.,0.,0.));
#521=CARTESIAN_POINT('',(0.,0.,0.));
#522=CARTESIAN_POINT('',(0.,0.,0.));
#523=CARTESIAN_POINT('',(0.,0.,0.));
#524=CARTESIAN_POINT('',(0.,0.,0.));
#525=CARTESIAN_POINT('',(0.,0.,0.));
#526=CARTESIAN_POINT('',(0.,0.,0.));
#527=CARTESIAN_POINT('',(0.,1.651,0.));
#528=CARTESIAN_POINT('',(0.,-1.651,0.));
#529=CARTESIAN_POINT('',(0.,-1.651,0.));
#530=CARTESIAN_POINT('',(0.,0.,0.1154491665187));
#531=CARTESIAN_POINT('',(0.,1.651,0.));
#532=CARTESIAN_POINT('',(0.,0.,0.05657009159417));
#533=CARTESIAN_POINT('',(0.,0.,0.));
#534=CARTESIAN_POINT('',(0.,0.,0.05657009159417));
#535=CARTESIAN_POINT('',(0.,-1.651,1.524));
#536=CARTESIAN_POINT('',(0.,-3.175,1.524));
#537=CARTESIAN_POINT('',(0.,0.,1.524));
#538=CARTESIAN_POINT('',(0.,3.175,1.524));
#539=CARTESIAN_POINT('',(0.,1.651,1.524));
#540=CARTESIAN_POINT('',(0.,0.,1.524));
#541=CARTESIAN_POINT('',(0.,0.,1.524));
#542=CARTESIAN_POINT('',(0.,0.,1.524));
#543=CARTESIAN_POINT('',(0.,-3.175,9.525));
#544=CARTESIAN_POINT('',(0.,-3.175,9.525));
#545=CARTESIAN_POINT('',(0.,3.175,9.525));
#546=CARTESIAN_POINT('',(0.,3.175,9.525));
#547=CARTESIAN_POINT('',(0.,0.,9.525));
#548=CARTESIAN_POINT('',(0.,0.,80.01));
#549=CARTESIAN_POINT('',(0.,0.,9.525));
#550=CARTESIAN_POINT('',(150.,150.,9.525));
#551=CARTESIAN_POINT('',(0.,0.,80.01));
#552=CARTESIAN_POINT('',(0.,3.1,9.6));
#553=CARTESIAN_POINT('',(0.,3.1,9.6));
#554=CARTESIAN_POINT('',(0.,3.175,9.525));
#555=CARTESIAN_POINT('',(0.,0.,9.6));
#556=CARTESIAN_POINT('',(0.,-3.1,9.6));
#557=CARTESIAN_POINT('',(0.,-3.1,9.6));
#558=CARTESIAN_POINT('',(0.,-3.175,9.525));
#559=CARTESIAN_POINT('',(0.,0.,9.525));
#560=CARTESIAN_POINT('',(0.,0.,9.5625));
#561=CARTESIAN_POINT('',(0.,0.,9.525));
#562=CARTESIAN_POINT('',(-150.,150.,9.525));
#563=CARTESIAN_POINT('',(0.,0.,9.6));
#564=CARTESIAN_POINT('',(0.,0.,9.5625));
#565=CARTESIAN_POINT('',(0.,-3.1,31.75));
#566=CARTESIAN_POINT('',(0.,-3.1,31.75));
#567=CARTESIAN_POINT('',(0.,0.,31.75));
#568=CARTESIAN_POINT('',(0.,3.1,31.75));
#569=CARTESIAN_POINT('',(0.,3.1,31.75));
#570=CARTESIAN_POINT('',(0.,0.,80.01));
#571=CARTESIAN_POINT('',(0.,0.,31.75));
#572=CARTESIAN_POINT('',(0.,0.,80.01));
#573=CARTESIAN_POINT('',(0.,0.,31.825));
#574=CARTESIAN_POINT('',(0.,-3.175,31.825));
#575=CARTESIAN_POINT('',(0.,3.175,31.825));
#576=CARTESIAN_POINT('',(0.,-3.175,31.825));
#577=CARTESIAN_POINT('',(0.,3.175,31.825));
#578=CARTESIAN_POINT('',(0.,0.,31.7875));
#579=CARTESIAN_POINT('',(0.,0.,31.825));
#580=CARTESIAN_POINT('',(0.,0.,31.7875));
#581=CARTESIAN_POINT('',(0.,-3.175,75.2));
#582=CARTESIAN_POINT('',(0.,-3.175,75.2));
#583=CARTESIAN_POINT('',(0.,0.,75.2));
#584=CARTESIAN_POINT('',(0.,3.175,75.2));
#585=CARTESIAN_POINT('',(0.,3.175,75.2));
#586=CARTESIAN_POINT('',(0.,0.,80.01));
#587=CARTESIAN_POINT('',(0.,0.,75.2));
#588=CARTESIAN_POINT('',(0.,0.,80.01));
#589=CARTESIAN_POINT('',(0.,0.,76.2));
#590=CARTESIAN_POINT('',(0.,2.175,76.2));
#591=CARTESIAN_POINT('',(0.,-2.175,76.2));
#592=CARTESIAN_POINT('',(0.,-2.175,76.2));
#593=CARTESIAN_POINT('',(0.,2.175,76.2));
#594=CARTESIAN_POINT('',(0.,0.,75.7));
#595=CARTESIAN_POINT('',(0.,0.,76.2));
#596=CARTESIAN_POINT('',(0.,0.,75.7));
#597=CARTESIAN_POINT('',(0.,0.,76.2));
#598=MECHANICAL_DESIGN_GEOMETRIC_PRESENTATION_REPRESENTATION('',(#287,#288,
#289,#290,#291,#292,#293,#294,#295,#296,#297,#298,#299,#300),#599);
#599=(
GEOMETRIC_REPRESENTATION_CONTEXT(3)
GLOBAL_UNCERTAINTY_ASSIGNED_CONTEXT((#600))
GLOBAL_UNIT_ASSIGNED_CONTEXT((#606,#602,#601))
REPRESENTATION_CONTEXT('VFHVRBD1-4N5DR0_06','TOP_LEVEL_ASSEMBLY_PART')
);
#600=UNCERTAINTY_MEASURE_WITH_UNIT(LENGTH_MEASURE(2.E-5),#606,
'DISTANCE_ACCURACY_VALUE','Maximum Tolerance applied to model');
#601=(
NAMED_UNIT(*)
SI_UNIT($,.STERADIAN.)
SOLID_ANGLE_UNIT()
);
#602=(
CONVERSION_BASED_UNIT('DEGREE',#604)
NAMED_UNIT(#603)
PLANE_ANGLE_UNIT()
);
#603=DIMENSIONAL_EXPONENTS(0.,0.,0.,0.,0.,0.,0.);
#604=PLANE_ANGLE_MEASURE_WITH_UNIT(PLANE_ANGLE_MEASURE(0.0174532925),#605);
#605=(
NAMED_UNIT(*)
PLANE_ANGLE_UNIT()
SI_UNIT($,.RADIAN.)
);
#606=(
LENGTH_UNIT()
NAMED_UNIT(*)
SI_UNIT(.MILLI.,.METRE.)
);
ENDSEC;
END-ISO-10303-21;
