ISO-10303-21;
HEADER;
/* Generated by software containing ST-Developer
 * from STEP Tools, Inc. (www.steptools.com) 
 */
/* OPTION: using custom schema-name function */

FILE_DESCRIPTION(
/* description */ (''),
/* implementation_level */ '2;1');

FILE_NAME(
/* name */ 'MP2ESD1000S10.stp',
/* time_stamp */ '2021-05-12T09:31:34+09:00',
/* author */ (''),
/* organization */ (''),
/* preprocessor_version */ 'ST-DEVELOPER v16',
/* originating_system */ 'SIEMENS PLM Software NX 10.0',
/* authorisation */ '');

FILE_SCHEMA (('AUTOMOTIVE_DESIGN { 1 0 10303 214 3 1 1 1 }'));
ENDSEC;

DATA;
#10=CONSTRUCTIVE_GEOMETRY_REPRESENTATION_RELATIONSHIP(
'supplemental geometry','',#26,#11);
#11=CONSTRUCTIVE_GEOMETRY_REPRESENTATION('supplemental geometry',(#276,
#277,#278,#279,#280,#281,#282,#283,#284,#285,#286,#287,#288),#447);
#12=GEOMETRICALLY_BOUNDED_WIREFRAME_SHAPE_REPRESENTATION(
'MP2ESD1000S10-None',(#27),#447);
#13=SHAPE_REPRESENTATION_RELATIONSHIP('None',
'relationship between MP2ESD1000S10-None and MP2ESD1000S10-None',#26,#15);
#14=SHAPE_REPRESENTATION_RELATIONSHIP('None',
'relationship between MP2ESD1000S10-None and MP2ESD1000S10-None',#26,#12);
#15=ADVANCED_BREP_SHAPE_REPRESENTATION('MP2ESD1000S10-None',(#40,#41),#447);
#16=SHAPE_DEFINITION_REPRESENTATION(#17,#26);
#17=PRODUCT_DEFINITION_SHAPE('','SHAPE FOR MP2ESD1000S10_ASM.',#18);
#18=PRODUCT_DEFINITION('part definition','',#20,#19);
#19=PRODUCT_DEFINITION_CONTEXT('part definition',#25,'design');
#20=PRODUCT_DEFINITION_FORMATION_WITH_SPECIFIED_SOURCE(' ',' ',#22,
 .NOT_KNOWN.);
#21=PRODUCT_RELATED_PRODUCT_CATEGORY('part','',(#22));
#22=PRODUCT('MP2ESD1000S10_ASM','MP2ESD1000S10_ASM','NOT SPECIFIED',(#23));
#23=PRODUCT_CONTEXT('',#25,'mechanical');
#24=APPLICATION_PROTOCOL_DEFINITION('international standard',
'automotive_design',2010,#25);
#25=APPLICATION_CONTEXT(
'core data for automotive mechanical design processes');
#26=SHAPE_REPRESENTATION('MP2ESD1000S10-None',(#275),#447);
#27=GEOMETRIC_CURVE_SET('None',(#388,#389,#390,#391,#392,#185,#186,#187,
#188));
#28=CONICAL_SURFACE('',#305,4.75,45.);
#29=CONICAL_SURFACE('',#307,4.75,45.);
#30=SURFACE_STYLE_USAGE(.BOTH.,#32);
#31=SURFACE_STYLE_USAGE(.BOTH.,#33);
#32=SURFACE_SIDE_STYLE('',(#34));
#33=SURFACE_SIDE_STYLE('',(#35));
#34=SURFACE_STYLE_FILL_AREA(#36);
#35=SURFACE_STYLE_FILL_AREA(#37);
#36=FILL_AREA_STYLE('',(#38));
#37=FILL_AREA_STYLE('',(#39));
#38=FILL_AREA_STYLE_COLOUR('',#273);
#39=FILL_AREA_STYLE_COLOUR('',#274);
#40=MANIFOLD_SOLID_BREP('CUT',#42);
#41=MANIFOLD_SOLID_BREP('NOCUT',#43);
#42=CLOSED_SHELL('',(#48,#49,#50,#51));
#43=CLOSED_SHELL('',(#52,#53,#54,#55,#56,#57));
#44=PLANE('',#293);
#45=PLANE('',#296);
#46=PLANE('',#301);
#47=PLANE('',#308);
#48=ADVANCED_FACE('',(#62),#58,.T.);
#49=ADVANCED_FACE('',(#63),#44,.F.);
#50=ADVANCED_FACE('',(#64),#59,.T.);
#51=ADVANCED_FACE('',(#65),#45,.T.);
#52=ADVANCED_FACE('',(#66),#60,.T.);
#53=ADVANCED_FACE('',(#67),#46,.F.);
#54=ADVANCED_FACE('',(#68),#61,.T.);
#55=ADVANCED_FACE('',(#69),#28,.T.);
#56=ADVANCED_FACE('',(#70),#29,.T.);
#57=ADVANCED_FACE('',(#71),#47,.F.);
#58=CYLINDRICAL_SURFACE('',#291,5.);
#59=CYLINDRICAL_SURFACE('',#295,5.);
#60=CYLINDRICAL_SURFACE('',#299,5.);
#61=CYLINDRICAL_SURFACE('',#303,5.);
#62=FACE_OUTER_BOUND('',#72,.T.);
#63=FACE_OUTER_BOUND('',#73,.T.);
#64=FACE_OUTER_BOUND('',#74,.T.);
#65=FACE_OUTER_BOUND('',#75,.T.);
#66=FACE_OUTER_BOUND('',#76,.T.);
#67=FACE_OUTER_BOUND('',#77,.T.);
#68=FACE_OUTER_BOUND('',#78,.T.);
#69=FACE_OUTER_BOUND('',#79,.T.);
#70=FACE_OUTER_BOUND('',#80,.T.);
#71=FACE_OUTER_BOUND('',#81,.T.);
#72=EDGE_LOOP('',(#92,#93,#94,#95));
#73=EDGE_LOOP('',(#96,#97));
#74=EDGE_LOOP('',(#98,#99,#100,#101));
#75=EDGE_LOOP('',(#102,#103));
#76=EDGE_LOOP('',(#104,#105,#106,#107));
#77=EDGE_LOOP('',(#108,#109));
#78=EDGE_LOOP('',(#110,#111,#112,#113));
#79=EDGE_LOOP('',(#114,#115,#116,#117));
#80=EDGE_LOOP('',(#118,#119,#120,#121));
#81=EDGE_LOOP('',(#122,#123));
#82=CIRCLE('',#289,5.);
#83=CIRCLE('',#290,5.);
#84=CIRCLE('',#292,5.);
#85=CIRCLE('',#294,5.);
#86=CIRCLE('',#297,5.);
#87=CIRCLE('',#298,5.);
#88=CIRCLE('',#300,5.);
#89=CIRCLE('',#302,5.);
#90=CIRCLE('',#304,4.5);
#91=CIRCLE('',#306,4.5);
#92=ORIENTED_EDGE('',*,*,#134,.T.);
#93=ORIENTED_EDGE('',*,*,#135,.T.);
#94=ORIENTED_EDGE('',*,*,#136,.F.);
#95=ORIENTED_EDGE('',*,*,#137,.T.);
#96=ORIENTED_EDGE('',*,*,#138,.F.);
#97=ORIENTED_EDGE('',*,*,#137,.F.);
#98=ORIENTED_EDGE('',*,*,#136,.T.);
#99=ORIENTED_EDGE('',*,*,#139,.T.);
#100=ORIENTED_EDGE('',*,*,#134,.F.);
#101=ORIENTED_EDGE('',*,*,#138,.T.);
#102=ORIENTED_EDGE('',*,*,#135,.F.);
#103=ORIENTED_EDGE('',*,*,#139,.F.);
#104=ORIENTED_EDGE('',*,*,#140,.F.);
#105=ORIENTED_EDGE('',*,*,#141,.T.);
#106=ORIENTED_EDGE('',*,*,#142,.T.);
#107=ORIENTED_EDGE('',*,*,#143,.T.);
#108=ORIENTED_EDGE('',*,*,#144,.F.);
#109=ORIENTED_EDGE('',*,*,#143,.F.);
#110=ORIENTED_EDGE('',*,*,#142,.F.);
#111=ORIENTED_EDGE('',*,*,#145,.T.);
#112=ORIENTED_EDGE('',*,*,#140,.T.);
#113=ORIENTED_EDGE('',*,*,#144,.T.);
#114=ORIENTED_EDGE('',*,*,#145,.F.);
#115=ORIENTED_EDGE('',*,*,#146,.T.);
#116=ORIENTED_EDGE('',*,*,#147,.T.);
#117=ORIENTED_EDGE('',*,*,#148,.F.);
#118=ORIENTED_EDGE('',*,*,#149,.T.);
#119=ORIENTED_EDGE('',*,*,#146,.F.);
#120=ORIENTED_EDGE('',*,*,#141,.F.);
#121=ORIENTED_EDGE('',*,*,#148,.T.);
#122=ORIENTED_EDGE('',*,*,#149,.F.);
#123=ORIENTED_EDGE('',*,*,#147,.F.);
#124=VERTEX_POINT('',#411);
#125=VERTEX_POINT('',#412);
#126=VERTEX_POINT('',#414);
#127=VERTEX_POINT('',#416);
#128=VERTEX_POINT('',#425);
#129=VERTEX_POINT('',#426);
#130=VERTEX_POINT('',#428);
#131=VERTEX_POINT('',#430);
#132=VERTEX_POINT('',#438);
#133=VERTEX_POINT('',#440);
#134=EDGE_CURVE('',#124,#125,#193,.T.);
#135=EDGE_CURVE('',#125,#126,#82,.T.);
#136=EDGE_CURVE('',#127,#126,#194,.T.);
#137=EDGE_CURVE('',#127,#124,#83,.T.);
#138=EDGE_CURVE('',#124,#127,#84,.T.);
#139=EDGE_CURVE('',#126,#125,#85,.T.);
#140=EDGE_CURVE('',#128,#129,#195,.T.);
#141=EDGE_CURVE('',#128,#130,#86,.T.);
#142=EDGE_CURVE('',#130,#131,#196,.T.);
#143=EDGE_CURVE('',#131,#129,#87,.T.);
#144=EDGE_CURVE('',#129,#131,#88,.T.);
#145=EDGE_CURVE('',#130,#128,#89,.T.);
#146=EDGE_CURVE('',#130,#132,#197,.T.);
#147=EDGE_CURVE('',#132,#133,#90,.T.);
#148=EDGE_CURVE('',#128,#133,#198,.T.);
#149=EDGE_CURVE('',#133,#132,#91,.T.);
#150=CURVE_STYLE('',#168,POSITIVE_LENGTH_MEASURE(0.18),#167);
#151=CURVE_STYLE('',#169,POSITIVE_LENGTH_MEASURE(0.18),#167);
#152=CURVE_STYLE('',#170,POSITIVE_LENGTH_MEASURE(0.18),#167);
#153=CURVE_STYLE('',#171,POSITIVE_LENGTH_MEASURE(0.18),#167);
#154=CURVE_STYLE('',#172,POSITIVE_LENGTH_MEASURE(0.13),#272);
#155=CURVE_STYLE('',#173,POSITIVE_LENGTH_MEASURE(0.13),#272);
#156=CURVE_STYLE('',#174,POSITIVE_LENGTH_MEASURE(0.13),#272);
#157=CURVE_STYLE('',#175,POSITIVE_LENGTH_MEASURE(0.13),#271);
#158=CURVE_STYLE('',#176,POSITIVE_LENGTH_MEASURE(0.13),#271);
#159=CURVE_STYLE('',#177,POSITIVE_LENGTH_MEASURE(0.18),#272);
#160=CURVE_STYLE('',#178,POSITIVE_LENGTH_MEASURE(0.13),#271);
#161=CURVE_STYLE('',#179,POSITIVE_LENGTH_MEASURE(0.13),#272);
#162=CURVE_STYLE('',#180,POSITIVE_LENGTH_MEASURE(0.13),#272);
#163=CURVE_STYLE('',#181,POSITIVE_LENGTH_MEASURE(0.13),#272);
#164=CURVE_STYLE('',#182,POSITIVE_LENGTH_MEASURE(0.13),#271);
#165=CURVE_STYLE('',#183,POSITIVE_LENGTH_MEASURE(0.13),#272);
#166=CURVE_STYLE('',#184,POSITIVE_LENGTH_MEASURE(0.13),#272);
#167=DRAUGHTING_PRE_DEFINED_COLOUR('blue');
#168=DRAUGHTING_PRE_DEFINED_CURVE_FONT('continuous');
#169=DRAUGHTING_PRE_DEFINED_CURVE_FONT('continuous');
#170=DRAUGHTING_PRE_DEFINED_CURVE_FONT('continuous');
#171=DRAUGHTING_PRE_DEFINED_CURVE_FONT('continuous');
#172=DRAUGHTING_PRE_DEFINED_CURVE_FONT('continuous');
#173=DRAUGHTING_PRE_DEFINED_CURVE_FONT('continuous');
#174=DRAUGHTING_PRE_DEFINED_CURVE_FONT('continuous');
#175=DRAUGHTING_PRE_DEFINED_CURVE_FONT('continuous');
#176=DRAUGHTING_PRE_DEFINED_CURVE_FONT('continuous');
#177=DRAUGHTING_PRE_DEFINED_CURVE_FONT('continuous');
#178=DRAUGHTING_PRE_DEFINED_CURVE_FONT('continuous');
#179=DRAUGHTING_PRE_DEFINED_CURVE_FONT('continuous');
#180=DRAUGHTING_PRE_DEFINED_CURVE_FONT('continuous');
#181=DRAUGHTING_PRE_DEFINED_CURVE_FONT('continuous');
#182=DRAUGHTING_PRE_DEFINED_CURVE_FONT('continuous');
#183=DRAUGHTING_PRE_DEFINED_CURVE_FONT('continuous');
#184=DRAUGHTING_PRE_DEFINED_CURVE_FONT('continuous');
#185=TRIMMED_CURVE('',#189,(PARAMETER_VALUE(0.)),(PARAMETER_VALUE(1.)),
 .T.,.PARAMETER.);
#186=TRIMMED_CURVE('',#190,(PARAMETER_VALUE(0.)),(PARAMETER_VALUE(1.)),
 .T.,.PARAMETER.);
#187=TRIMMED_CURVE('',#191,(PARAMETER_VALUE(0.)),(PARAMETER_VALUE(1.)),
 .T.,.PARAMETER.);
#188=TRIMMED_CURVE('',#192,(PARAMETER_VALUE(0.)),(PARAMETER_VALUE(1.)),
 .T.,.PARAMETER.);
#189=LINE('',#393,#199);
#190=LINE('',#394,#200);
#191=LINE('',#395,#201);
#192=LINE('',#396,#202);
#193=LINE('',#410,#203);
#194=LINE('',#415,#204);
#195=LINE('',#424,#205);
#196=LINE('',#429,#206);
#197=LINE('',#437,#207);
#198=LINE('',#441,#208);
#199=VECTOR('',#311,5.);
#200=VECTOR('',#312,15.);
#201=VECTOR('',#313,5.);
#202=VECTOR('',#314,15.);
#203=VECTOR('',#341,1.);
#204=VECTOR('',#344,1.);
#205=VECTOR('',#359,1.);
#206=VECTOR('',#362,1.);
#207=VECTOR('',#375,1.);
#208=VECTOR('',#378,1.);
#209=PRESENTATION_LAYER_ASSIGNMENT('2','Layer 2',(#388,#389,#391,#279,#280,
#282));
#210=PRESENTATION_LAYER_ASSIGNMENT('3','Layer 3',(#390,#281));
#211=PRESENTATION_LAYER_ASSIGNMENT('1','Layer 1',(#392,#276,#277,#278,#283,
#284,#285,#286,#287,#288,#40,#41));
#212=PRESENTATION_LAYER_ASSIGNMENT('4','Layer 4',(#185,#186,#187,#188));
#213=STYLED_ITEM('',(#237),#388);
#214=STYLED_ITEM('',(#238),#389);
#215=STYLED_ITEM('',(#239),#390);
#216=STYLED_ITEM('',(#240),#391);
#217=STYLED_ITEM('',(#241),#392);
#218=STYLED_ITEM('',(#242),#185);
#219=STYLED_ITEM('',(#243),#186);
#220=STYLED_ITEM('',(#244),#187);
#221=STYLED_ITEM('',(#245),#188);
#222=STYLED_ITEM('',(#246),#276);
#223=STYLED_ITEM('',(#247),#277);
#224=STYLED_ITEM('',(#248),#278);
#225=STYLED_ITEM('',(#249),#279);
#226=STYLED_ITEM('',(#250),#280);
#227=STYLED_ITEM('',(#251),#281);
#228=STYLED_ITEM('',(#252),#282);
#229=STYLED_ITEM('',(#253),#283);
#230=STYLED_ITEM('',(#254),#284);
#231=STYLED_ITEM('',(#255),#285);
#232=STYLED_ITEM('',(#256),#286);
#233=STYLED_ITEM('',(#257),#287);
#234=STYLED_ITEM('',(#258),#288);
#235=STYLED_ITEM('',(#259),#40);
#236=STYLED_ITEM('',(#260),#41);
#237=PRESENTATION_STYLE_ASSIGNMENT((#261));
#238=PRESENTATION_STYLE_ASSIGNMENT((#262));
#239=PRESENTATION_STYLE_ASSIGNMENT((#263));
#240=PRESENTATION_STYLE_ASSIGNMENT((#264));
#241=PRESENTATION_STYLE_ASSIGNMENT((#265));
#242=PRESENTATION_STYLE_ASSIGNMENT((#150));
#243=PRESENTATION_STYLE_ASSIGNMENT((#151));
#244=PRESENTATION_STYLE_ASSIGNMENT((#152));
#245=PRESENTATION_STYLE_ASSIGNMENT((#153));
#246=PRESENTATION_STYLE_ASSIGNMENT((#154));
#247=PRESENTATION_STYLE_ASSIGNMENT((#155));
#248=PRESENTATION_STYLE_ASSIGNMENT((#156));
#249=PRESENTATION_STYLE_ASSIGNMENT((#157));
#250=PRESENTATION_STYLE_ASSIGNMENT((#158));
#251=PRESENTATION_STYLE_ASSIGNMENT((#159));
#252=PRESENTATION_STYLE_ASSIGNMENT((#160));
#253=PRESENTATION_STYLE_ASSIGNMENT((#161));
#254=PRESENTATION_STYLE_ASSIGNMENT((#162));
#255=PRESENTATION_STYLE_ASSIGNMENT((#163));
#256=PRESENTATION_STYLE_ASSIGNMENT((#164));
#257=PRESENTATION_STYLE_ASSIGNMENT((#165));
#258=PRESENTATION_STYLE_ASSIGNMENT((#166));
#259=PRESENTATION_STYLE_ASSIGNMENT((#30));
#260=PRESENTATION_STYLE_ASSIGNMENT((#31));
#261=POINT_STYLE('',#266,POSITIVE_LENGTH_MEASURE(3.),#271);
#262=POINT_STYLE('',#267,POSITIVE_LENGTH_MEASURE(3.),#271);
#263=POINT_STYLE('',#268,POSITIVE_LENGTH_MEASURE(3.),#272);
#264=POINT_STYLE('',#269,POSITIVE_LENGTH_MEASURE(3.),#271);
#265=POINT_STYLE('',#270,POSITIVE_LENGTH_MEASURE(3.),#271);
#266=PRE_DEFINED_POINT_MARKER_SYMBOL('plus');
#267=PRE_DEFINED_POINT_MARKER_SYMBOL('plus');
#268=PRE_DEFINED_POINT_MARKER_SYMBOL('plus');
#269=PRE_DEFINED_POINT_MARKER_SYMBOL('plus');
#270=PRE_DEFINED_POINT_MARKER_SYMBOL('plus');
#271=COLOUR_RGB('Medium Umber',0.372533760585946,0.313725490196078,0.270572976272221);
#272=COLOUR_RGB('Strong Stone',0.576470588235294,0.54508278019379,0.392156862745098);
#273=COLOUR_RGB('Light Gray',0.8,0.8,0.8);
#274=COLOUR_RGB('non-cutting part and shank',0.501960784313725,0.501960784313725,
0.501960784313725);
#275=AXIS2_PLACEMENT_3D('',#387,#309,#310);
#276=AXIS2_PLACEMENT_3D('',#397,#315,#316);
#277=AXIS2_PLACEMENT_3D('',#398,#317,#318);
#278=AXIS2_PLACEMENT_3D('',#399,#319,#320);
#279=AXIS2_PLACEMENT_3D('CIP',#400,#321,#322);
#280=AXIS2_PLACEMENT_3D('PCS',#401,#323,#324);
#281=AXIS2_PLACEMENT_3D('MCS',#402,#325,#326);
#282=AXIS2_PLACEMENT_3D('STEP_TEMP_EM8_1',#403,#327,#328);
#283=AXIS2_PLACEMENT_3D('',#404,#329,#330);
#284=AXIS2_PLACEMENT_3D('',#405,#331,#332);
#285=AXIS2_PLACEMENT_3D('',#406,#333,#334);
#286=AXIS2_PLACEMENT_3D('STEP_TEMP_EM8_2',#407,#335,#336);
#287=AXIS2_PLACEMENT_3D('',#408,#337,#338);
#288=AXIS2_PLACEMENT_3D('',#409,#339,#340);
#289=AXIS2_PLACEMENT_3D('',#413,#342,#343);
#290=AXIS2_PLACEMENT_3D('',#417,#345,#346);
#291=AXIS2_PLACEMENT_3D('',#418,#347,#348);
#292=AXIS2_PLACEMENT_3D('',#419,#349,#350);
#293=AXIS2_PLACEMENT_3D('',#420,#351,#352);
#294=AXIS2_PLACEMENT_3D('',#421,#353,#354);
#295=AXIS2_PLACEMENT_3D('',#422,#355,#356);
#296=AXIS2_PLACEMENT_3D('',#423,#357,#358);
#297=AXIS2_PLACEMENT_3D('',#427,#360,#361);
#298=AXIS2_PLACEMENT_3D('',#431,#363,#364);
#299=AXIS2_PLACEMENT_3D('',#432,#365,#366);
#300=AXIS2_PLACEMENT_3D('',#433,#367,#368);
#301=AXIS2_PLACEMENT_3D('',#434,#369,#370);
#302=AXIS2_PLACEMENT_3D('',#435,#371,#372);
#303=AXIS2_PLACEMENT_3D('',#436,#373,#374);
#304=AXIS2_PLACEMENT_3D('',#439,#376,#377);
#305=AXIS2_PLACEMENT_3D('',#442,#379,#380);
#306=AXIS2_PLACEMENT_3D('',#443,#381,#382);
#307=AXIS2_PLACEMENT_3D('',#444,#383,#384);
#308=AXIS2_PLACEMENT_3D('',#445,#385,#386);
#309=DIRECTION('',(0.,0.,1.));
#310=DIRECTION('',(1.,0.,0.));
#311=DIRECTION('',(-1.,0.,0.));
#312=DIRECTION('',(0.,0.,1.));
#313=DIRECTION('',(1.,0.,0.));
#314=DIRECTION('',(0.,0.,-1.));
#315=DIRECTION('',(0.,0.,1.));
#316=DIRECTION('',(1.,0.,0.));
#317=DIRECTION('',(0.,0.,1.));
#318=DIRECTION('',(1.,0.,0.));
#319=DIRECTION('',(0.,0.,1.));
#320=DIRECTION('',(1.,0.,0.));
#321=DIRECTION('',(0.,0.,1.));
#322=DIRECTION('',(1.,0.,0.));
#323=DIRECTION('',(0.,0.,1.));
#324=DIRECTION('',(1.,0.,0.));
#325=DIRECTION('',(0.,0.,1.));
#326=DIRECTION('',(1.,0.,0.));
#327=DIRECTION('',(0.,0.,1.));
#328=DIRECTION('',(1.,0.,0.));
#329=DIRECTION('',(0.,0.,1.));
#330=DIRECTION('',(1.,0.,0.));
#331=DIRECTION('',(0.,0.,1.));
#332=DIRECTION('',(1.,0.,0.));
#333=DIRECTION('',(0.,0.,1.));
#334=DIRECTION('',(1.,0.,0.));
#335=DIRECTION('',(0.,0.,1.));
#336=DIRECTION('',(1.,0.,0.));
#337=DIRECTION('',(0.,0.,1.));
#338=DIRECTION('',(1.,0.,0.));
#339=DIRECTION('',(0.,0.,1.));
#340=DIRECTION('',(1.,0.,0.));
#341=DIRECTION('',(0.,0.,-1.));
#342=DIRECTION('',(0.,0.,1.));
#343=DIRECTION('',(0.,-1.,0.));
#344=DIRECTION('',(0.,0.,-1.));
#345=DIRECTION('',(0.,0.,-1.));
#346=DIRECTION('',(0.,1.,0.));
#347=DIRECTION('',(0.,0.,-1.));
#348=DIRECTION('',(0.,1.,0.));
#349=DIRECTION('',(0.,0.,-1.));
#350=DIRECTION('',(0.,-1.,0.));
#351=DIRECTION('',(0.,0.,-1.));
#352=DIRECTION('',(1.,0.,0.));
#353=DIRECTION('',(0.,0.,1.));
#354=DIRECTION('',(0.,1.,0.));
#355=DIRECTION('',(0.,0.,-1.));
#356=DIRECTION('',(0.,1.,0.));
#357=DIRECTION('',(0.,0.,-1.));
#358=DIRECTION('',(0.,1.,0.));
#359=DIRECTION('',(0.,0.,-1.));
#360=DIRECTION('',(0.,0.,-1.));
#361=DIRECTION('',(0.,1.,0.));
#362=DIRECTION('',(0.,0.,-1.));
#363=DIRECTION('',(0.,0.,1.));
#364=DIRECTION('',(0.,-1.,0.));
#365=DIRECTION('',(0.,0.,-1.));
#366=DIRECTION('',(0.,1.,0.));
#367=DIRECTION('',(0.,0.,1.));
#368=DIRECTION('',(0.,1.,0.));
#369=DIRECTION('',(0.,0.,1.));
#370=DIRECTION('',(-1.,0.,0.));
#371=DIRECTION('',(0.,0.,-1.));
#372=DIRECTION('',(0.,-1.,0.));
#373=DIRECTION('',(0.,0.,-1.));
#374=DIRECTION('',(0.,1.,0.));
#375=DIRECTION('',(0.,0.707106781186547,0.707106781186547));
#376=DIRECTION('',(0.,0.,-1.));
#377=DIRECTION('',(0.,-1.,0.));
#378=DIRECTION('',(0.,-0.707106781186547,0.707106781186547));
#379=DIRECTION('',(0.,0.,-1.));
#380=DIRECTION('',(0.,1.,-4.14365398591126E-17));
#381=DIRECTION('',(0.,0.,-1.));
#382=DIRECTION('',(0.,1.,0.));
#383=DIRECTION('',(0.,0.,-1.));
#384=DIRECTION('',(0.,1.,-4.14365398591126E-17));
#385=DIRECTION('',(0.,0.,-1.));
#386=DIRECTION('',(0.,1.,0.));
#387=CARTESIAN_POINT('',(0.,0.,0.));
#388=CARTESIAN_POINT('',(0.,0.,0.));
#389=CARTESIAN_POINT('',(0.,0.,50.));
#390=CARTESIAN_POINT('',(0.,0.,20.));
#391=CARTESIAN_POINT('',(0.,0.,0.));
#392=CARTESIAN_POINT('',(0.,0.,0.));
#393=CARTESIAN_POINT('',(0.,0.,0.));
#394=CARTESIAN_POINT('',(-5.,0.,0.));
#395=CARTESIAN_POINT('',(-5.,0.,15.));
#396=CARTESIAN_POINT('',(0.,0.,15.));
#397=CARTESIAN_POINT('',(0.,0.,0.));
#398=CARTESIAN_POINT('',(0.,0.,0.));
#399=CARTESIAN_POINT('',(0.,0.,0.));
#400=CARTESIAN_POINT('',(0.,0.,0.));
#401=CARTESIAN_POINT('',(0.,0.,50.));
#402=CARTESIAN_POINT('',(0.,0.,20.));
#403=CARTESIAN_POINT('',(0.,0.,0.));
#404=CARTESIAN_POINT('',(0.,0.,0.));
#405=CARTESIAN_POINT('',(0.,0.,0.));
#406=CARTESIAN_POINT('',(0.,0.,0.));
#407=CARTESIAN_POINT('',(0.,0.,0.));
#408=CARTESIAN_POINT('',(0.,0.,0.));
#409=CARTESIAN_POINT('',(0.,0.,0.));
#410=CARTESIAN_POINT('',(0.,-5.,15.));
#411=CARTESIAN_POINT('',(0.,-5.,15.));
#412=CARTESIAN_POINT('',(0.,-5.,0.));
#413=CARTESIAN_POINT('',(0.,0.,0.));
#414=CARTESIAN_POINT('',(0.,5.,0.));
#415=CARTESIAN_POINT('',(0.,5.,15.));
#416=CARTESIAN_POINT('',(0.,5.,15.));
#417=CARTESIAN_POINT('',(0.,0.,15.));
#418=CARTESIAN_POINT('',(0.,0.,52.5));
#419=CARTESIAN_POINT('',(0.,0.,15.));
#420=CARTESIAN_POINT('',(150.,150.,15.));
#421=CARTESIAN_POINT('',(0.,0.,0.));
#422=CARTESIAN_POINT('',(0.,0.,52.5));
#423=CARTESIAN_POINT('',(0.,0.,0.));
#424=CARTESIAN_POINT('',(0.,5.,49.5));
#425=CARTESIAN_POINT('',(0.,5.,49.5));
#426=CARTESIAN_POINT('',(0.,5.,15.));
#427=CARTESIAN_POINT('',(0.,0.,49.5));
#428=CARTESIAN_POINT('',(0.,-5.,49.5));
#429=CARTESIAN_POINT('',(0.,-5.,49.5));
#430=CARTESIAN_POINT('',(0.,-5.,15.));
#431=CARTESIAN_POINT('',(0.,0.,15.));
#432=CARTESIAN_POINT('',(0.,0.,52.5));
#433=CARTESIAN_POINT('',(0.,0.,15.));
#434=CARTESIAN_POINT('',(-150.,150.,15.));
#435=CARTESIAN_POINT('',(0.,0.,49.5));
#436=CARTESIAN_POINT('',(0.,0.,52.5));
#437=CARTESIAN_POINT('',(0.,-4.5,50.));
#438=CARTESIAN_POINT('',(0.,-4.5,50.));
#439=CARTESIAN_POINT('',(0.,0.,50.));
#440=CARTESIAN_POINT('',(0.,4.5,50.));
#441=CARTESIAN_POINT('',(0.,4.5,50.));
#442=CARTESIAN_POINT('',(0.,0.,49.75));
#443=CARTESIAN_POINT('',(0.,0.,50.));
#444=CARTESIAN_POINT('',(0.,0.,49.75));
#445=CARTESIAN_POINT('',(0.,0.,50.));
#446=MECHANICAL_DESIGN_GEOMETRIC_PRESENTATION_REPRESENTATION('',(#213,#214,
#215,#216,#217,#218,#219,#220,#221,#222,#223,#224,#225,#226,#227,#228,#229,
#230,#231,#232,#233,#234,#235,#236),#447);
#447=(
GEOMETRIC_REPRESENTATION_CONTEXT(3)
GLOBAL_UNCERTAINTY_ASSIGNED_CONTEXT((#448))
GLOBAL_UNIT_ASSIGNED_CONTEXT((#454,#450,#449))
REPRESENTATION_CONTEXT('MP2ESD1000S10','TOP_LEVEL_ASSEMBLY_PART')
);
#448=UNCERTAINTY_MEASURE_WITH_UNIT(LENGTH_MEASURE(2.E-5),#454,
'DISTANCE_ACCURACY_VALUE','Maximum Tolerance applied to model');
#449=(
NAMED_UNIT(*)
SI_UNIT($,.STERADIAN.)
SOLID_ANGLE_UNIT()
);
#450=(
CONVERSION_BASED_UNIT('DEGREE',#452)
NAMED_UNIT(#451)
PLANE_ANGLE_UNIT()
);
#451=DIMENSIONAL_EXPONENTS(0.,0.,0.,0.,0.,0.,0.);
#452=PLANE_ANGLE_MEASURE_WITH_UNIT(PLANE_ANGLE_MEASURE(0.0174532925),#453);
#453=(
NAMED_UNIT(*)
PLANE_ANGLE_UNIT()
SI_UNIT($,.RADIAN.)
);
#454=(
LENGTH_UNIT()
NAMED_UNIT(*)
SI_UNIT(.MILLI.,.METRE.)
);
ENDSEC;
END-ISO-10303-21;
