ISO-10303-21;
HEADER;
/* Generated by software containing ST-Developer
 * from STEP Tools, Inc. (www.steptools.com) 
 */
/* OPTION: using custom schema-name function */

FILE_DESCRIPTION(
/* description */ (''),
/* implementation_level */ '2;1');

FILE_NAME(
/* name */ 'MP3ESD0500S06.stp',
/* time_stamp */ '2021-05-12T09:31:56+09:00',
/* author */ (''),
/* organization */ (''),
/* preprocessor_version */ 'ST-DEVELOPER v16',
/* originating_system */ 'SIEMENS PLM Software NX 10.0',
/* authorisation */ '');

FILE_SCHEMA (('AUTOMOTIVE_DESIGN { 1 0 10303 214 3 1 1 1 }'));
ENDSEC;

DATA;
#10=CONSTRUCTIVE_GEOMETRY_REPRESENTATION_RELATIONSHIP(
'supplemental geometry','',#26,#11);
#11=CONSTRUCTIVE_GEOMETRY_REPRESENTATION('supplemental geometry',(#332,
#333,#334,#335,#336,#337,#338,#339,#340,#341,#342,#343,#344),#547);
#12=GEOMETRICALLY_BOUNDED_WIREFRAME_SHAPE_REPRESENTATION(
'MP3ESD0500S06-None',(#27),#547);
#13=SHAPE_REPRESENTATION_RELATIONSHIP('None',
'relationship between MP3ESD0500S06-None and MP3ESD0500S06-None',#26,#15);
#14=SHAPE_REPRESENTATION_RELATIONSHIP('None',
'relationship between MP3ESD0500S06-None and MP3ESD0500S06-None',#26,#12);
#15=ADVANCED_BREP_SHAPE_REPRESENTATION('MP3ESD0500S06-None',(#42,#43),#547);
#16=SHAPE_DEFINITION_REPRESENTATION(#17,#26);
#17=PRODUCT_DEFINITION_SHAPE('','SHAPE FOR MP3ESD0500S06_ASM.',#18);
#18=PRODUCT_DEFINITION('part definition','',#20,#19);
#19=PRODUCT_DEFINITION_CONTEXT('part definition',#25,'design');
#20=PRODUCT_DEFINITION_FORMATION_WITH_SPECIFIED_SOURCE(' ',' ',#22,
 .NOT_KNOWN.);
#21=PRODUCT_RELATED_PRODUCT_CATEGORY('part','',(#22));
#22=PRODUCT('MP3ESD0500S06_ASM','MP3ESD0500S06_ASM','NOT SPECIFIED',(#23));
#23=PRODUCT_CONTEXT('',#25,'mechanical');
#24=APPLICATION_PROTOCOL_DEFINITION('international standard',
'automotive_design',2010,#25);
#25=APPLICATION_CONTEXT(
'core data for automotive mechanical design processes');
#26=SHAPE_REPRESENTATION('MP3ESD0500S06-None',(#331),#547);
#27=GEOMETRIC_CURVE_SET('None',(#472,#473,#474,#475,#476,#233,#234,#235,
#236));
#28=CONICAL_SURFACE('',#361,2.75,15.);
#29=CONICAL_SURFACE('',#363,2.75,15.);
#30=CONICAL_SURFACE('',#369,2.75,45.);
#31=CONICAL_SURFACE('',#371,2.75,45.);
#32=SURFACE_STYLE_USAGE(.BOTH.,#34);
#33=SURFACE_STYLE_USAGE(.BOTH.,#35);
#34=SURFACE_SIDE_STYLE('',(#36));
#35=SURFACE_SIDE_STYLE('',(#37));
#36=SURFACE_STYLE_FILL_AREA(#38);
#37=SURFACE_STYLE_FILL_AREA(#39);
#38=FILL_AREA_STYLE('',(#40));
#39=FILL_AREA_STYLE('',(#41));
#40=FILL_AREA_STYLE_COLOUR('',#329);
#41=FILL_AREA_STYLE_COLOUR('',#330);
#42=MANIFOLD_SOLID_BREP('CUT',#44);
#43=MANIFOLD_SOLID_BREP('NOCUT',#45);
#44=CLOSED_SHELL('',(#50,#51,#52,#53));
#45=CLOSED_SHELL('',(#54,#55,#56,#57,#58,#59,#60,#61,#62,#63));
#46=PLANE('',#349);
#47=PLANE('',#352);
#48=PLANE('',#357);
#49=PLANE('',#372);
#50=ADVANCED_FACE('',(#70),#64,.T.);
#51=ADVANCED_FACE('',(#71),#46,.F.);
#52=ADVANCED_FACE('',(#72),#65,.T.);
#53=ADVANCED_FACE('',(#73),#47,.T.);
#54=ADVANCED_FACE('',(#74),#66,.T.);
#55=ADVANCED_FACE('',(#75),#48,.F.);
#56=ADVANCED_FACE('',(#76),#67,.T.);
#57=ADVANCED_FACE('',(#77),#28,.T.);
#58=ADVANCED_FACE('',(#78),#29,.T.);
#59=ADVANCED_FACE('',(#79),#68,.T.);
#60=ADVANCED_FACE('',(#80),#69,.T.);
#61=ADVANCED_FACE('',(#81),#30,.T.);
#62=ADVANCED_FACE('',(#82),#31,.T.);
#63=ADVANCED_FACE('',(#83),#49,.F.);
#64=CYLINDRICAL_SURFACE('',#347,2.5);
#65=CYLINDRICAL_SURFACE('',#351,2.5);
#66=CYLINDRICAL_SURFACE('',#355,2.5);
#67=CYLINDRICAL_SURFACE('',#359,2.5);
#68=CYLINDRICAL_SURFACE('',#365,3.);
#69=CYLINDRICAL_SURFACE('',#367,3.);
#70=FACE_OUTER_BOUND('',#84,.T.);
#71=FACE_OUTER_BOUND('',#85,.T.);
#72=FACE_OUTER_BOUND('',#86,.T.);
#73=FACE_OUTER_BOUND('',#87,.T.);
#74=FACE_OUTER_BOUND('',#88,.T.);
#75=FACE_OUTER_BOUND('',#89,.T.);
#76=FACE_OUTER_BOUND('',#90,.T.);
#77=FACE_OUTER_BOUND('',#91,.T.);
#78=FACE_OUTER_BOUND('',#92,.T.);
#79=FACE_OUTER_BOUND('',#93,.T.);
#80=FACE_OUTER_BOUND('',#94,.T.);
#81=FACE_OUTER_BOUND('',#95,.T.);
#82=FACE_OUTER_BOUND('',#96,.T.);
#83=FACE_OUTER_BOUND('',#97,.T.);
#84=EDGE_LOOP('',(#112,#113,#114,#115));
#85=EDGE_LOOP('',(#116,#117));
#86=EDGE_LOOP('',(#118,#119,#120,#121));
#87=EDGE_LOOP('',(#122,#123));
#88=EDGE_LOOP('',(#124,#125,#126,#127));
#89=EDGE_LOOP('',(#128,#129));
#90=EDGE_LOOP('',(#130,#131,#132,#133));
#91=EDGE_LOOP('',(#134,#135,#136,#137));
#92=EDGE_LOOP('',(#138,#139,#140,#141));
#93=EDGE_LOOP('',(#142,#143,#144,#145));
#94=EDGE_LOOP('',(#146,#147,#148,#149));
#95=EDGE_LOOP('',(#150,#151,#152,#153));
#96=EDGE_LOOP('',(#154,#155,#156,#157));
#97=EDGE_LOOP('',(#158,#159));
#98=CIRCLE('',#345,2.5);
#99=CIRCLE('',#346,2.5);
#100=CIRCLE('',#348,2.5);
#101=CIRCLE('',#350,2.5);
#102=CIRCLE('',#353,2.5);
#103=CIRCLE('',#354,2.5);
#104=CIRCLE('',#356,2.5);
#105=CIRCLE('',#358,2.5);
#106=CIRCLE('',#360,2.999999999999);
#107=CIRCLE('',#362,2.999999999999);
#108=CIRCLE('',#364,3.);
#109=CIRCLE('',#366,3.);
#110=CIRCLE('',#368,2.5);
#111=CIRCLE('',#370,2.5);
#112=ORIENTED_EDGE('',*,*,#174,.T.);
#113=ORIENTED_EDGE('',*,*,#175,.T.);
#114=ORIENTED_EDGE('',*,*,#176,.F.);
#115=ORIENTED_EDGE('',*,*,#177,.T.);
#116=ORIENTED_EDGE('',*,*,#178,.F.);
#117=ORIENTED_EDGE('',*,*,#177,.F.);
#118=ORIENTED_EDGE('',*,*,#176,.T.);
#119=ORIENTED_EDGE('',*,*,#179,.T.);
#120=ORIENTED_EDGE('',*,*,#174,.F.);
#121=ORIENTED_EDGE('',*,*,#178,.T.);
#122=ORIENTED_EDGE('',*,*,#175,.F.);
#123=ORIENTED_EDGE('',*,*,#179,.F.);
#124=ORIENTED_EDGE('',*,*,#180,.F.);
#125=ORIENTED_EDGE('',*,*,#181,.T.);
#126=ORIENTED_EDGE('',*,*,#182,.T.);
#127=ORIENTED_EDGE('',*,*,#183,.T.);
#128=ORIENTED_EDGE('',*,*,#184,.F.);
#129=ORIENTED_EDGE('',*,*,#183,.F.);
#130=ORIENTED_EDGE('',*,*,#182,.F.);
#131=ORIENTED_EDGE('',*,*,#185,.T.);
#132=ORIENTED_EDGE('',*,*,#180,.T.);
#133=ORIENTED_EDGE('',*,*,#184,.T.);
#134=ORIENTED_EDGE('',*,*,#185,.F.);
#135=ORIENTED_EDGE('',*,*,#186,.T.);
#136=ORIENTED_EDGE('',*,*,#187,.F.);
#137=ORIENTED_EDGE('',*,*,#188,.F.);
#138=ORIENTED_EDGE('',*,*,#189,.F.);
#139=ORIENTED_EDGE('',*,*,#186,.F.);
#140=ORIENTED_EDGE('',*,*,#181,.F.);
#141=ORIENTED_EDGE('',*,*,#188,.T.);
#142=ORIENTED_EDGE('',*,*,#190,.T.);
#143=ORIENTED_EDGE('',*,*,#191,.T.);
#144=ORIENTED_EDGE('',*,*,#189,.T.);
#145=ORIENTED_EDGE('',*,*,#192,.F.);
#146=ORIENTED_EDGE('',*,*,#187,.T.);
#147=ORIENTED_EDGE('',*,*,#191,.F.);
#148=ORIENTED_EDGE('',*,*,#193,.T.);
#149=ORIENTED_EDGE('',*,*,#192,.T.);
#150=ORIENTED_EDGE('',*,*,#193,.F.);
#151=ORIENTED_EDGE('',*,*,#194,.T.);
#152=ORIENTED_EDGE('',*,*,#195,.T.);
#153=ORIENTED_EDGE('',*,*,#196,.F.);
#154=ORIENTED_EDGE('',*,*,#197,.T.);
#155=ORIENTED_EDGE('',*,*,#194,.F.);
#156=ORIENTED_EDGE('',*,*,#190,.F.);
#157=ORIENTED_EDGE('',*,*,#196,.T.);
#158=ORIENTED_EDGE('',*,*,#197,.F.);
#159=ORIENTED_EDGE('',*,*,#195,.F.);
#160=VERTEX_POINT('',#495);
#161=VERTEX_POINT('',#496);
#162=VERTEX_POINT('',#498);
#163=VERTEX_POINT('',#500);
#164=VERTEX_POINT('',#509);
#165=VERTEX_POINT('',#510);
#166=VERTEX_POINT('',#512);
#167=VERTEX_POINT('',#514);
#168=VERTEX_POINT('',#522);
#169=VERTEX_POINT('',#524);
#170=VERTEX_POINT('',#530);
#171=VERTEX_POINT('',#531);
#172=VERTEX_POINT('',#538);
#173=VERTEX_POINT('',#540);
#174=EDGE_CURVE('',#160,#161,#241,.T.);
#175=EDGE_CURVE('',#161,#162,#98,.T.);
#176=EDGE_CURVE('',#163,#162,#242,.T.);
#177=EDGE_CURVE('',#163,#160,#99,.T.);
#178=EDGE_CURVE('',#160,#163,#100,.T.);
#179=EDGE_CURVE('',#162,#161,#101,.T.);
#180=EDGE_CURVE('',#164,#165,#243,.T.);
#181=EDGE_CURVE('',#164,#166,#102,.T.);
#182=EDGE_CURVE('',#166,#167,#244,.T.);
#183=EDGE_CURVE('',#167,#165,#103,.T.);
#184=EDGE_CURVE('',#165,#167,#104,.T.);
#185=EDGE_CURVE('',#166,#164,#105,.T.);
#186=EDGE_CURVE('',#166,#168,#245,.T.);
#187=EDGE_CURVE('',#169,#168,#106,.T.);
#188=EDGE_CURVE('',#164,#169,#246,.T.);
#189=EDGE_CURVE('',#168,#169,#107,.T.);
#190=EDGE_CURVE('',#170,#171,#108,.T.);
#191=EDGE_CURVE('',#171,#168,#247,.T.);
#192=EDGE_CURVE('',#170,#169,#248,.T.);
#193=EDGE_CURVE('',#171,#170,#109,.T.);
#194=EDGE_CURVE('',#171,#172,#249,.T.);
#195=EDGE_CURVE('',#172,#173,#110,.T.);
#196=EDGE_CURVE('',#170,#173,#250,.T.);
#197=EDGE_CURVE('',#173,#172,#111,.T.);
#198=CURVE_STYLE('',#216,POSITIVE_LENGTH_MEASURE(0.18),#215);
#199=CURVE_STYLE('',#217,POSITIVE_LENGTH_MEASURE(0.18),#215);
#200=CURVE_STYLE('',#218,POSITIVE_LENGTH_MEASURE(0.18),#215);
#201=CURVE_STYLE('',#219,POSITIVE_LENGTH_MEASURE(0.18),#215);
#202=CURVE_STYLE('',#220,POSITIVE_LENGTH_MEASURE(0.13),#328);
#203=CURVE_STYLE('',#221,POSITIVE_LENGTH_MEASURE(0.13),#328);
#204=CURVE_STYLE('',#222,POSITIVE_LENGTH_MEASURE(0.13),#328);
#205=CURVE_STYLE('',#223,POSITIVE_LENGTH_MEASURE(0.13),#327);
#206=CURVE_STYLE('',#224,POSITIVE_LENGTH_MEASURE(0.13),#327);
#207=CURVE_STYLE('',#225,POSITIVE_LENGTH_MEASURE(0.18),#328);
#208=CURVE_STYLE('',#226,POSITIVE_LENGTH_MEASURE(0.13),#327);
#209=CURVE_STYLE('',#227,POSITIVE_LENGTH_MEASURE(0.13),#328);
#210=CURVE_STYLE('',#228,POSITIVE_LENGTH_MEASURE(0.13),#328);
#211=CURVE_STYLE('',#229,POSITIVE_LENGTH_MEASURE(0.13),#328);
#212=CURVE_STYLE('',#230,POSITIVE_LENGTH_MEASURE(0.13),#327);
#213=CURVE_STYLE('',#231,POSITIVE_LENGTH_MEASURE(0.13),#328);
#214=CURVE_STYLE('',#232,POSITIVE_LENGTH_MEASURE(0.13),#328);
#215=DRAUGHTING_PRE_DEFINED_COLOUR('blue');
#216=DRAUGHTING_PRE_DEFINED_CURVE_FONT('continuous');
#217=DRAUGHTING_PRE_DEFINED_CURVE_FONT('continuous');
#218=DRAUGHTING_PRE_DEFINED_CURVE_FONT('continuous');
#219=DRAUGHTING_PRE_DEFINED_CURVE_FONT('continuous');
#220=DRAUGHTING_PRE_DEFINED_CURVE_FONT('continuous');
#221=DRAUGHTING_PRE_DEFINED_CURVE_FONT('continuous');
#222=DRAUGHTING_PRE_DEFINED_CURVE_FONT('continuous');
#223=DRAUGHTING_PRE_DEFINED_CURVE_FONT('continuous');
#224=DRAUGHTING_PRE_DEFINED_CURVE_FONT('continuous');
#225=DRAUGHTING_PRE_DEFINED_CURVE_FONT('continuous');
#226=DRAUGHTING_PRE_DEFINED_CURVE_FONT('continuous');
#227=DRAUGHTING_PRE_DEFINED_CURVE_FONT('continuous');
#228=DRAUGHTING_PRE_DEFINED_CURVE_FONT('continuous');
#229=DRAUGHTING_PRE_DEFINED_CURVE_FONT('continuous');
#230=DRAUGHTING_PRE_DEFINED_CURVE_FONT('continuous');
#231=DRAUGHTING_PRE_DEFINED_CURVE_FONT('continuous');
#232=DRAUGHTING_PRE_DEFINED_CURVE_FONT('continuous');
#233=TRIMMED_CURVE('',#237,(PARAMETER_VALUE(0.)),(PARAMETER_VALUE(1.)),
 .T.,.PARAMETER.);
#234=TRIMMED_CURVE('',#238,(PARAMETER_VALUE(0.)),(PARAMETER_VALUE(1.)),
 .T.,.PARAMETER.);
#235=TRIMMED_CURVE('',#239,(PARAMETER_VALUE(0.)),(PARAMETER_VALUE(1.)),
 .T.,.PARAMETER.);
#236=TRIMMED_CURVE('',#240,(PARAMETER_VALUE(0.)),(PARAMETER_VALUE(1.)),
 .T.,.PARAMETER.);
#237=LINE('',#477,#251);
#238=LINE('',#478,#252);
#239=LINE('',#479,#253);
#240=LINE('',#480,#254);
#241=LINE('',#494,#255);
#242=LINE('',#499,#256);
#243=LINE('',#508,#257);
#244=LINE('',#513,#258);
#245=LINE('',#521,#259);
#246=LINE('',#525,#260);
#247=LINE('',#532,#261);
#248=LINE('',#533,#262);
#249=LINE('',#537,#263);
#250=LINE('',#541,#264);
#251=VECTOR('',#375,2.5);
#252=VECTOR('',#376,7.5);
#253=VECTOR('',#377,2.5);
#254=VECTOR('',#378,7.5);
#255=VECTOR('',#405,1.);
#256=VECTOR('',#408,1.);
#257=VECTOR('',#423,1.);
#258=VECTOR('',#426,1.);
#259=VECTOR('',#439,1.);
#260=VECTOR('',#442,1.);
#261=VECTOR('',#451,1.);
#262=VECTOR('',#452,1.);
#263=VECTOR('',#459,1.);
#264=VECTOR('',#462,1.);
#265=PRESENTATION_LAYER_ASSIGNMENT('2','Layer 2',(#472,#473,#475,#335,#336,
#338));
#266=PRESENTATION_LAYER_ASSIGNMENT('3','Layer 3',(#474,#337));
#267=PRESENTATION_LAYER_ASSIGNMENT('1','Layer 1',(#476,#332,#333,#334,#339,
#340,#341,#342,#343,#344,#42,#43));
#268=PRESENTATION_LAYER_ASSIGNMENT('4','Layer 4',(#233,#234,#235,#236));
#269=STYLED_ITEM('',(#293),#472);
#270=STYLED_ITEM('',(#294),#473);
#271=STYLED_ITEM('',(#295),#474);
#272=STYLED_ITEM('',(#296),#475);
#273=STYLED_ITEM('',(#297),#476);
#274=STYLED_ITEM('',(#298),#233);
#275=STYLED_ITEM('',(#299),#234);
#276=STYLED_ITEM('',(#300),#235);
#277=STYLED_ITEM('',(#301),#236);
#278=STYLED_ITEM('',(#302),#332);
#279=STYLED_ITEM('',(#303),#333);
#280=STYLED_ITEM('',(#304),#334);
#281=STYLED_ITEM('',(#305),#335);
#282=STYLED_ITEM('',(#306),#336);
#283=STYLED_ITEM('',(#307),#337);
#284=STYLED_ITEM('',(#308),#338);
#285=STYLED_ITEM('',(#309),#339);
#286=STYLED_ITEM('',(#310),#340);
#287=STYLED_ITEM('',(#311),#341);
#288=STYLED_ITEM('',(#312),#342);
#289=STYLED_ITEM('',(#313),#343);
#290=STYLED_ITEM('',(#314),#344);
#291=STYLED_ITEM('',(#315),#42);
#292=STYLED_ITEM('',(#316),#43);
#293=PRESENTATION_STYLE_ASSIGNMENT((#317));
#294=PRESENTATION_STYLE_ASSIGNMENT((#318));
#295=PRESENTATION_STYLE_ASSIGNMENT((#319));
#296=PRESENTATION_STYLE_ASSIGNMENT((#320));
#297=PRESENTATION_STYLE_ASSIGNMENT((#321));
#298=PRESENTATION_STYLE_ASSIGNMENT((#198));
#299=PRESENTATION_STYLE_ASSIGNMENT((#199));
#300=PRESENTATION_STYLE_ASSIGNMENT((#200));
#301=PRESENTATION_STYLE_ASSIGNMENT((#201));
#302=PRESENTATION_STYLE_ASSIGNMENT((#202));
#303=PRESENTATION_STYLE_ASSIGNMENT((#203));
#304=PRESENTATION_STYLE_ASSIGNMENT((#204));
#305=PRESENTATION_STYLE_ASSIGNMENT((#205));
#306=PRESENTATION_STYLE_ASSIGNMENT((#206));
#307=PRESENTATION_STYLE_ASSIGNMENT((#207));
#308=PRESENTATION_STYLE_ASSIGNMENT((#208));
#309=PRESENTATION_STYLE_ASSIGNMENT((#209));
#310=PRESENTATION_STYLE_ASSIGNMENT((#210));
#311=PRESENTATION_STYLE_ASSIGNMENT((#211));
#312=PRESENTATION_STYLE_ASSIGNMENT((#212));
#313=PRESENTATION_STYLE_ASSIGNMENT((#213));
#314=PRESENTATION_STYLE_ASSIGNMENT((#214));
#315=PRESENTATION_STYLE_ASSIGNMENT((#32));
#316=PRESENTATION_STYLE_ASSIGNMENT((#33));
#317=POINT_STYLE('',#322,POSITIVE_LENGTH_MEASURE(3.),#327);
#318=POINT_STYLE('',#323,POSITIVE_LENGTH_MEASURE(3.),#327);
#319=POINT_STYLE('',#324,POSITIVE_LENGTH_MEASURE(3.),#328);
#320=POINT_STYLE('',#325,POSITIVE_LENGTH_MEASURE(3.),#327);
#321=POINT_STYLE('',#326,POSITIVE_LENGTH_MEASURE(3.),#327);
#322=PRE_DEFINED_POINT_MARKER_SYMBOL('plus');
#323=PRE_DEFINED_POINT_MARKER_SYMBOL('plus');
#324=PRE_DEFINED_POINT_MARKER_SYMBOL('plus');
#325=PRE_DEFINED_POINT_MARKER_SYMBOL('plus');
#326=PRE_DEFINED_POINT_MARKER_SYMBOL('plus');
#327=COLOUR_RGB('Medium Umber',0.372533760585946,0.313725490196078,0.270572976272221);
#328=COLOUR_RGB('Strong Stone',0.576470588235294,0.54508278019379,0.392156862745098);
#329=COLOUR_RGB('Light Gray',0.8,0.8,0.8);
#330=COLOUR_RGB('non-cutting part and shank',0.501960784313725,0.501960784313725,
0.501960784313725);
#331=AXIS2_PLACEMENT_3D('',#471,#373,#374);
#332=AXIS2_PLACEMENT_3D('',#481,#379,#380);
#333=AXIS2_PLACEMENT_3D('',#482,#381,#382);
#334=AXIS2_PLACEMENT_3D('',#483,#383,#384);
#335=AXIS2_PLACEMENT_3D('CIP',#484,#385,#386);
#336=AXIS2_PLACEMENT_3D('PCS',#485,#387,#388);
#337=AXIS2_PLACEMENT_3D('MCS',#486,#389,#390);
#338=AXIS2_PLACEMENT_3D('STEP_TEMP_EM7_1',#487,#391,#392);
#339=AXIS2_PLACEMENT_3D('',#488,#393,#394);
#340=AXIS2_PLACEMENT_3D('',#489,#395,#396);
#341=AXIS2_PLACEMENT_3D('',#490,#397,#398);
#342=AXIS2_PLACEMENT_3D('STEP_TEMP_EM7_2',#491,#399,#400);
#343=AXIS2_PLACEMENT_3D('',#492,#401,#402);
#344=AXIS2_PLACEMENT_3D('',#493,#403,#404);
#345=AXIS2_PLACEMENT_3D('',#497,#406,#407);
#346=AXIS2_PLACEMENT_3D('',#501,#409,#410);
#347=AXIS2_PLACEMENT_3D('',#502,#411,#412);
#348=AXIS2_PLACEMENT_3D('',#503,#413,#414);
#349=AXIS2_PLACEMENT_3D('',#504,#415,#416);
#350=AXIS2_PLACEMENT_3D('',#505,#417,#418);
#351=AXIS2_PLACEMENT_3D('',#506,#419,#420);
#352=AXIS2_PLACEMENT_3D('',#507,#421,#422);
#353=AXIS2_PLACEMENT_3D('',#511,#424,#425);
#354=AXIS2_PLACEMENT_3D('',#515,#427,#428);
#355=AXIS2_PLACEMENT_3D('',#516,#429,#430);
#356=AXIS2_PLACEMENT_3D('',#517,#431,#432);
#357=AXIS2_PLACEMENT_3D('',#518,#433,#434);
#358=AXIS2_PLACEMENT_3D('',#519,#435,#436);
#359=AXIS2_PLACEMENT_3D('',#520,#437,#438);
#360=AXIS2_PLACEMENT_3D('',#523,#440,#441);
#361=AXIS2_PLACEMENT_3D('',#526,#443,#444);
#362=AXIS2_PLACEMENT_3D('',#527,#445,#446);
#363=AXIS2_PLACEMENT_3D('',#528,#447,#448);
#364=AXIS2_PLACEMENT_3D('',#529,#449,#450);
#365=AXIS2_PLACEMENT_3D('',#534,#453,#454);
#366=AXIS2_PLACEMENT_3D('',#535,#455,#456);
#367=AXIS2_PLACEMENT_3D('',#536,#457,#458);
#368=AXIS2_PLACEMENT_3D('',#539,#460,#461);
#369=AXIS2_PLACEMENT_3D('',#542,#463,#464);
#370=AXIS2_PLACEMENT_3D('',#543,#465,#466);
#371=AXIS2_PLACEMENT_3D('',#544,#467,#468);
#372=AXIS2_PLACEMENT_3D('',#545,#469,#470);
#373=DIRECTION('',(0.,0.,1.));
#374=DIRECTION('',(1.,0.,0.));
#375=DIRECTION('',(-1.,0.,0.));
#376=DIRECTION('',(0.,0.,1.));
#377=DIRECTION('',(1.,0.,0.));
#378=DIRECTION('',(0.,0.,-1.));
#379=DIRECTION('',(0.,0.,1.));
#380=DIRECTION('',(1.,0.,0.));
#381=DIRECTION('',(0.,0.,1.));
#382=DIRECTION('',(1.,0.,0.));
#383=DIRECTION('',(0.,0.,1.));
#384=DIRECTION('',(1.,0.,0.));
#385=DIRECTION('',(0.,0.,1.));
#386=DIRECTION('',(1.,0.,0.));
#387=DIRECTION('',(0.,0.,1.));
#388=DIRECTION('',(1.,0.,0.));
#389=DIRECTION('',(0.,0.,1.));
#390=DIRECTION('',(1.,0.,0.));
#391=DIRECTION('',(0.,0.,1.));
#392=DIRECTION('',(1.,0.,0.));
#393=DIRECTION('',(0.,0.,1.));
#394=DIRECTION('',(1.,0.,0.));
#395=DIRECTION('',(0.,0.,1.));
#396=DIRECTION('',(1.,0.,0.));
#397=DIRECTION('',(0.,0.,1.));
#398=DIRECTION('',(1.,0.,0.));
#399=DIRECTION('',(0.,0.,1.));
#400=DIRECTION('',(1.,0.,0.));
#401=DIRECTION('',(0.,0.,1.));
#402=DIRECTION('',(1.,0.,0.));
#403=DIRECTION('',(0.,0.,1.));
#404=DIRECTION('',(1.,0.,0.));
#405=DIRECTION('',(0.,0.,-1.));
#406=DIRECTION('',(0.,0.,1.));
#407=DIRECTION('',(0.,-1.,0.));
#408=DIRECTION('',(0.,0.,-1.));
#409=DIRECTION('',(0.,0.,-1.));
#410=DIRECTION('',(0.,1.,0.));
#411=DIRECTION('',(0.,0.,-1.));
#412=DIRECTION('',(0.,1.,0.));
#413=DIRECTION('',(0.,0.,-1.));
#414=DIRECTION('',(0.,-1.,0.));
#415=DIRECTION('',(0.,0.,-1.));
#416=DIRECTION('',(1.,0.,0.));
#417=DIRECTION('',(0.,0.,1.));
#418=DIRECTION('',(0.,1.,0.));
#419=DIRECTION('',(0.,0.,-1.));
#420=DIRECTION('',(0.,1.,0.));
#421=DIRECTION('',(0.,0.,-1.));
#422=DIRECTION('',(0.,1.,0.));
#423=DIRECTION('',(0.,-2.368475785867E-14,-1.));
#424=DIRECTION('',(0.,0.,-1.));
#425=DIRECTION('',(0.,1.,0.));
#426=DIRECTION('',(0.,2.368475785867E-14,-1.));
#427=DIRECTION('',(0.,0.,1.));
#428=DIRECTION('',(0.,-1.,0.));
#429=DIRECTION('',(0.,0.,-1.));
#430=DIRECTION('',(0.,1.,0.));
#431=DIRECTION('',(0.,0.,1.));
#432=DIRECTION('',(0.,1.,0.));
#433=DIRECTION('',(0.,0.,1.));
#434=DIRECTION('',(-1.,0.,0.));
#435=DIRECTION('',(0.,0.,-1.));
#436=DIRECTION('',(0.,-1.,0.));
#437=DIRECTION('',(0.,0.,-1.));
#438=DIRECTION('',(0.,1.,0.));
#439=DIRECTION('',(0.,-0.258819045102798,0.965925826288994));
#440=DIRECTION('',(0.,0.,1.));
#441=DIRECTION('',(0.,1.,0.));
#442=DIRECTION('',(0.,0.258819045102798,0.965925826288994));
#443=DIRECTION('',(0.,0.,1.));
#444=DIRECTION('',(0.,-1.,-4.48581476094627E-17));
#445=DIRECTION('',(0.,0.,1.));
#446=DIRECTION('',(0.,-1.,0.));
#447=DIRECTION('',(0.,0.,1.));
#448=DIRECTION('',(0.,-1.,-4.48581476094627E-17));
#449=DIRECTION('',(0.,0.,-1.));
#450=DIRECTION('',(0.,1.,0.));
#451=DIRECTION('',(0.,1.350495627317E-14,-1.));
#452=DIRECTION('',(0.,-1.350495627317E-14,-1.));
#453=DIRECTION('',(0.,0.,-1.));
#454=DIRECTION('',(0.,1.,0.));
#455=DIRECTION('',(0.,0.,-1.));
#456=DIRECTION('',(0.,-1.,0.));
#457=DIRECTION('',(0.,0.,-1.));
#458=DIRECTION('',(0.,1.,0.));
#459=DIRECTION('',(0.,0.707106781186547,0.707106781186547));
#460=DIRECTION('',(0.,0.,-1.));
#461=DIRECTION('',(0.,-1.,0.));
#462=DIRECTION('',(0.,-0.707106781186547,0.707106781186547));
#463=DIRECTION('',(0.,0.,-1.));
#464=DIRECTION('',(0.,1.,-4.15191856628705E-17));
#465=DIRECTION('',(0.,0.,-1.));
#466=DIRECTION('',(0.,1.,0.));
#467=DIRECTION('',(0.,0.,-1.));
#468=DIRECTION('',(0.,1.,-4.15191856628705E-17));
#469=DIRECTION('',(0.,0.,-1.));
#470=DIRECTION('',(0.,1.,0.));
#471=CARTESIAN_POINT('',(0.,0.,0.));
#472=CARTESIAN_POINT('',(0.,0.,0.));
#473=CARTESIAN_POINT('',(0.,0.,50.));
#474=CARTESIAN_POINT('',(0.,0.,32.));
#475=CARTESIAN_POINT('',(0.,0.,0.));
#476=CARTESIAN_POINT('',(0.,0.,0.));
#477=CARTESIAN_POINT('',(0.,0.,0.));
#478=CARTESIAN_POINT('',(-2.5,0.,0.));
#479=CARTESIAN_POINT('',(-2.5,0.,7.5));
#480=CARTESIAN_POINT('',(0.,0.,7.5));
#481=CARTESIAN_POINT('',(0.,0.,0.));
#482=CARTESIAN_POINT('',(0.,0.,0.));
#483=CARTESIAN_POINT('',(0.,0.,0.));
#484=CARTESIAN_POINT('',(0.,0.,0.));
#485=CARTESIAN_POINT('',(0.,0.,50.));
#486=CARTESIAN_POINT('',(0.,0.,32.));
#487=CARTESIAN_POINT('',(0.,0.,0.));
#488=CARTESIAN_POINT('',(0.,0.,0.));
#489=CARTESIAN_POINT('',(0.,0.,0.));
#490=CARTESIAN_POINT('',(0.,0.,0.));
#491=CARTESIAN_POINT('',(0.,0.,0.));
#492=CARTESIAN_POINT('',(0.,0.,0.));
#493=CARTESIAN_POINT('',(0.,0.,0.));
#494=CARTESIAN_POINT('',(0.,-2.5,7.5));
#495=CARTESIAN_POINT('',(0.,-2.5,7.5));
#496=CARTESIAN_POINT('',(0.,-2.5,0.));
#497=CARTESIAN_POINT('',(0.,0.,0.));
#498=CARTESIAN_POINT('',(0.,2.5,0.));
#499=CARTESIAN_POINT('',(0.,2.5,7.5));
#500=CARTESIAN_POINT('',(0.,2.5,7.5));
#501=CARTESIAN_POINT('',(0.,0.,7.5));
#502=CARTESIAN_POINT('',(0.,0.,52.5));
#503=CARTESIAN_POINT('',(0.,0.,7.5));
#504=CARTESIAN_POINT('',(150.,150.,7.5));
#505=CARTESIAN_POINT('',(0.,0.,0.));
#506=CARTESIAN_POINT('',(0.,0.,52.5));
#507=CARTESIAN_POINT('',(0.,0.,0.));
#508=CARTESIAN_POINT('',(0.,2.5,8.7));
#509=CARTESIAN_POINT('',(0.,2.5,8.7));
#510=CARTESIAN_POINT('',(0.,2.5,7.5));
#511=CARTESIAN_POINT('',(0.,0.,8.7));
#512=CARTESIAN_POINT('',(0.,-2.5,8.7));
#513=CARTESIAN_POINT('',(0.,-2.5,8.7));
#514=CARTESIAN_POINT('',(0.,-2.5,7.5));
#515=CARTESIAN_POINT('',(0.,0.,7.5));
#516=CARTESIAN_POINT('',(0.,0.,52.5));
#517=CARTESIAN_POINT('',(0.,0.,7.5));
#518=CARTESIAN_POINT('',(-150.,150.,7.5));
#519=CARTESIAN_POINT('',(0.,0.,8.7));
#520=CARTESIAN_POINT('',(0.,0.,52.5));
#521=CARTESIAN_POINT('',(0.,-2.999999999999,10.56602540378));
#522=CARTESIAN_POINT('',(0.,-2.999999999999,10.56602540378));
#523=CARTESIAN_POINT('',(0.,0.,10.56602540378));
#524=CARTESIAN_POINT('',(0.,2.999999999999,10.56602540378));
#525=CARTESIAN_POINT('',(0.,2.999999999999,10.56602540378));
#526=CARTESIAN_POINT('',(0.,0.,9.63301270189));
#527=CARTESIAN_POINT('',(0.,0.,10.56602540378));
#528=CARTESIAN_POINT('',(0.,0.,9.63301270189));
#529=CARTESIAN_POINT('',(0.,0.,49.5));
#530=CARTESIAN_POINT('',(0.,3.,49.5));
#531=CARTESIAN_POINT('',(0.,-3.,49.5));
#532=CARTESIAN_POINT('',(0.,-3.,49.5));
#533=CARTESIAN_POINT('',(0.,3.,49.5));
#534=CARTESIAN_POINT('',(0.,0.,52.5));
#535=CARTESIAN_POINT('',(0.,0.,49.5));
#536=CARTESIAN_POINT('',(0.,0.,52.5));
#537=CARTESIAN_POINT('',(0.,-2.5,50.));
#538=CARTESIAN_POINT('',(0.,-2.5,50.));
#539=CARTESIAN_POINT('',(0.,0.,50.));
#540=CARTESIAN_POINT('',(0.,2.5,50.));
#541=CARTESIAN_POINT('',(0.,2.5,50.));
#542=CARTESIAN_POINT('',(0.,0.,49.75));
#543=CARTESIAN_POINT('',(0.,0.,50.));
#544=CARTESIAN_POINT('',(0.,0.,49.75));
#545=CARTESIAN_POINT('',(0.,0.,50.));
#546=MECHANICAL_DESIGN_GEOMETRIC_PRESENTATION_REPRESENTATION('',(#269,#270,
#271,#272,#273,#274,#275,#276,#277,#278,#279,#280,#281,#282,#283,#284,#285,
#286,#287,#288,#289,#290,#291,#292),#547);
#547=(
GEOMETRIC_REPRESENTATION_CONTEXT(3)
GLOBAL_UNCERTAINTY_ASSIGNED_CONTEXT((#548))
GLOBAL_UNIT_ASSIGNED_CONTEXT((#554,#550,#549))
REPRESENTATION_CONTEXT('MP3ESD0500S06','TOP_LEVEL_ASSEMBLY_PART')
);
#548=UNCERTAINTY_MEASURE_WITH_UNIT(LENGTH_MEASURE(2.E-5),#554,
'DISTANCE_ACCURACY_VALUE','Maximum Tolerance applied to model');
#549=(
NAMED_UNIT(*)
SI_UNIT($,.STERADIAN.)
SOLID_ANGLE_UNIT()
);
#550=(
CONVERSION_BASED_UNIT('DEGREE',#552)
NAMED_UNIT(#551)
PLANE_ANGLE_UNIT()
);
#551=DIMENSIONAL_EXPONENTS(0.,0.,0.,0.,0.,0.,0.);
#552=PLANE_ANGLE_MEASURE_WITH_UNIT(PLANE_ANGLE_MEASURE(0.0174532925),#553);
#553=(
NAMED_UNIT(*)
PLANE_ANGLE_UNIT()
SI_UNIT($,.RADIAN.)
);
#554=(
LENGTH_UNIT()
NAMED_UNIT(*)
SI_UNIT(.MILLI.,.METRE.)
);
ENDSEC;
END-ISO-10303-21;
