ISO-10303-21;
HEADER;
/* Generated by software containing ST-Developer
 * from STEP Tools, Inc. (www.steptools.com) 
 */
/* OPTION: using custom schema-name function */

FILE_DESCRIPTION(
/* description */ (''),
/* implementation_level */ '2;1');

FILE_NAME(
/* name */ 'MP3ESD1200S10.stp',
/* time_stamp */ '2021-05-12T09:31:56+09:00',
/* author */ (''),
/* organization */ (''),
/* preprocessor_version */ 'ST-DEVELOPER v16',
/* originating_system */ 'SIEMENS PLM Software NX 10.0',
/* authorisation */ '');

FILE_SCHEMA (('AUTOMOTIVE_DESIGN { 1 0 10303 214 3 1 1 1 }'));
ENDSEC;

DATA;
#10=CONSTRUCTIVE_GEOMETRY_REPRESENTATION_RELATIONSHIP(
'supplemental geometry','',#26,#11);
#11=CONSTRUCTIVE_GEOMETRY_REPRESENTATION('supplemental geometry',(#304,
#305,#306,#307,#308,#309,#310,#311,#312,#313,#314,#315,#316),#497);
#12=GEOMETRICALLY_BOUNDED_WIREFRAME_SHAPE_REPRESENTATION(
'MP3ESD1200S10-None',(#27),#497);
#13=SHAPE_REPRESENTATION_RELATIONSHIP('None',
'relationship between MP3ESD1200S10-None and MP3ESD1200S10-None',#26,#15);
#14=SHAPE_REPRESENTATION_RELATIONSHIP('None',
'relationship between MP3ESD1200S10-None and MP3ESD1200S10-None',#26,#12);
#15=ADVANCED_BREP_SHAPE_REPRESENTATION('MP3ESD1200S10-None',(#42,#43),#497);
#16=SHAPE_DEFINITION_REPRESENTATION(#17,#26);
#17=PRODUCT_DEFINITION_SHAPE('','SHAPE FOR MP3ESD1200S10_ASM.',#18);
#18=PRODUCT_DEFINITION('part definition','',#20,#19);
#19=PRODUCT_DEFINITION_CONTEXT('part definition',#25,'design');
#20=PRODUCT_DEFINITION_FORMATION_WITH_SPECIFIED_SOURCE(' ',' ',#22,
 .NOT_KNOWN.);
#21=PRODUCT_RELATED_PRODUCT_CATEGORY('part','',(#22));
#22=PRODUCT('MP3ESD1200S10_ASM','MP3ESD1200S10_ASM','NOT SPECIFIED',(#23));
#23=PRODUCT_CONTEXT('',#25,'mechanical');
#24=APPLICATION_PROTOCOL_DEFINITION('international standard',
'automotive_design',2010,#25);
#25=APPLICATION_CONTEXT(
'core data for automotive mechanical design processes');
#26=SHAPE_REPRESENTATION('MP3ESD1200S10-None',(#303),#497);
#27=GEOMETRIC_CURVE_SET('None',(#430,#431,#432,#433,#434,#209,#210,#211,
#212));
#28=CONICAL_SURFACE('',#327,5.5,45.);
#29=CONICAL_SURFACE('',#331,5.5,45.);
#30=CONICAL_SURFACE('',#337,4.75,45.);
#31=CONICAL_SURFACE('',#339,4.75,45.);
#32=SURFACE_STYLE_USAGE(.BOTH.,#34);
#33=SURFACE_STYLE_USAGE(.BOTH.,#35);
#34=SURFACE_SIDE_STYLE('',(#36));
#35=SURFACE_SIDE_STYLE('',(#37));
#36=SURFACE_STYLE_FILL_AREA(#38);
#37=SURFACE_STYLE_FILL_AREA(#39);
#38=FILL_AREA_STYLE('',(#40));
#39=FILL_AREA_STYLE('',(#41));
#40=FILL_AREA_STYLE_COLOUR('',#301);
#41=FILL_AREA_STYLE_COLOUR('',#302);
#42=MANIFOLD_SOLID_BREP('CUT',#44);
#43=MANIFOLD_SOLID_BREP('NOCUT',#45);
#44=CLOSED_SHELL('',(#50,#51,#52,#53));
#45=CLOSED_SHELL('',(#54,#55,#56,#57,#58,#59,#60,#61));
#46=PLANE('',#321);
#47=PLANE('',#324);
#48=PLANE('',#329);
#49=PLANE('',#340);
#50=ADVANCED_FACE('',(#66),#62,.T.);
#51=ADVANCED_FACE('',(#67),#46,.F.);
#52=ADVANCED_FACE('',(#68),#63,.T.);
#53=ADVANCED_FACE('',(#69),#47,.T.);
#54=ADVANCED_FACE('',(#70),#28,.T.);
#55=ADVANCED_FACE('',(#71),#48,.F.);
#56=ADVANCED_FACE('',(#72),#29,.T.);
#57=ADVANCED_FACE('',(#73),#64,.T.);
#58=ADVANCED_FACE('',(#74),#65,.T.);
#59=ADVANCED_FACE('',(#75),#30,.T.);
#60=ADVANCED_FACE('',(#76),#31,.T.);
#61=ADVANCED_FACE('',(#77),#49,.F.);
#62=CYLINDRICAL_SURFACE('',#319,6.);
#63=CYLINDRICAL_SURFACE('',#323,6.);
#64=CYLINDRICAL_SURFACE('',#333,5.);
#65=CYLINDRICAL_SURFACE('',#335,5.);
#66=FACE_OUTER_BOUND('',#78,.T.);
#67=FACE_OUTER_BOUND('',#79,.T.);
#68=FACE_OUTER_BOUND('',#80,.T.);
#69=FACE_OUTER_BOUND('',#81,.T.);
#70=FACE_OUTER_BOUND('',#82,.T.);
#71=FACE_OUTER_BOUND('',#83,.T.);
#72=FACE_OUTER_BOUND('',#84,.T.);
#73=FACE_OUTER_BOUND('',#85,.T.);
#74=FACE_OUTER_BOUND('',#86,.T.);
#75=FACE_OUTER_BOUND('',#87,.T.);
#76=FACE_OUTER_BOUND('',#88,.T.);
#77=FACE_OUTER_BOUND('',#89,.T.);
#78=EDGE_LOOP('',(#102,#103,#104,#105));
#79=EDGE_LOOP('',(#106,#107));
#80=EDGE_LOOP('',(#108,#109,#110,#111));
#81=EDGE_LOOP('',(#112,#113));
#82=EDGE_LOOP('',(#114,#115,#116,#117));
#83=EDGE_LOOP('',(#118,#119));
#84=EDGE_LOOP('',(#120,#121,#122,#123));
#85=EDGE_LOOP('',(#124,#125,#126,#127));
#86=EDGE_LOOP('',(#128,#129,#130,#131));
#87=EDGE_LOOP('',(#132,#133,#134,#135));
#88=EDGE_LOOP('',(#136,#137,#138,#139));
#89=EDGE_LOOP('',(#140,#141));
#90=CIRCLE('',#317,6.);
#91=CIRCLE('',#318,6.);
#92=CIRCLE('',#320,6.);
#93=CIRCLE('',#322,6.);
#94=CIRCLE('',#325,5.);
#95=CIRCLE('',#326,6.);
#96=CIRCLE('',#328,6.);
#97=CIRCLE('',#330,5.);
#98=CIRCLE('',#332,5.);
#99=CIRCLE('',#334,5.);
#100=CIRCLE('',#336,4.5);
#101=CIRCLE('',#338,4.5);
#102=ORIENTED_EDGE('',*,*,#154,.T.);
#103=ORIENTED_EDGE('',*,*,#155,.T.);
#104=ORIENTED_EDGE('',*,*,#156,.F.);
#105=ORIENTED_EDGE('',*,*,#157,.T.);
#106=ORIENTED_EDGE('',*,*,#158,.F.);
#107=ORIENTED_EDGE('',*,*,#157,.F.);
#108=ORIENTED_EDGE('',*,*,#156,.T.);
#109=ORIENTED_EDGE('',*,*,#159,.T.);
#110=ORIENTED_EDGE('',*,*,#154,.F.);
#111=ORIENTED_EDGE('',*,*,#158,.T.);
#112=ORIENTED_EDGE('',*,*,#155,.F.);
#113=ORIENTED_EDGE('',*,*,#159,.F.);
#114=ORIENTED_EDGE('',*,*,#160,.F.);
#115=ORIENTED_EDGE('',*,*,#161,.F.);
#116=ORIENTED_EDGE('',*,*,#162,.T.);
#117=ORIENTED_EDGE('',*,*,#163,.T.);
#118=ORIENTED_EDGE('',*,*,#164,.F.);
#119=ORIENTED_EDGE('',*,*,#163,.F.);
#120=ORIENTED_EDGE('',*,*,#162,.F.);
#121=ORIENTED_EDGE('',*,*,#165,.F.);
#122=ORIENTED_EDGE('',*,*,#160,.T.);
#123=ORIENTED_EDGE('',*,*,#164,.T.);
#124=ORIENTED_EDGE('',*,*,#165,.T.);
#125=ORIENTED_EDGE('',*,*,#166,.T.);
#126=ORIENTED_EDGE('',*,*,#167,.T.);
#127=ORIENTED_EDGE('',*,*,#168,.F.);
#128=ORIENTED_EDGE('',*,*,#169,.T.);
#129=ORIENTED_EDGE('',*,*,#166,.F.);
#130=ORIENTED_EDGE('',*,*,#161,.T.);
#131=ORIENTED_EDGE('',*,*,#168,.T.);
#132=ORIENTED_EDGE('',*,*,#170,.T.);
#133=ORIENTED_EDGE('',*,*,#171,.T.);
#134=ORIENTED_EDGE('',*,*,#169,.F.);
#135=ORIENTED_EDGE('',*,*,#172,.F.);
#136=ORIENTED_EDGE('',*,*,#167,.F.);
#137=ORIENTED_EDGE('',*,*,#171,.F.);
#138=ORIENTED_EDGE('',*,*,#173,.T.);
#139=ORIENTED_EDGE('',*,*,#172,.T.);
#140=ORIENTED_EDGE('',*,*,#170,.F.);
#141=ORIENTED_EDGE('',*,*,#173,.F.);
#142=VERTEX_POINT('',#453);
#143=VERTEX_POINT('',#454);
#144=VERTEX_POINT('',#456);
#145=VERTEX_POINT('',#458);
#146=VERTEX_POINT('',#467);
#147=VERTEX_POINT('',#468);
#148=VERTEX_POINT('',#470);
#149=VERTEX_POINT('',#472);
#150=VERTEX_POINT('',#480);
#151=VERTEX_POINT('',#482);
#152=VERTEX_POINT('',#488);
#153=VERTEX_POINT('',#489);
#154=EDGE_CURVE('',#142,#143,#217,.T.);
#155=EDGE_CURVE('',#143,#144,#90,.T.);
#156=EDGE_CURVE('',#145,#144,#218,.T.);
#157=EDGE_CURVE('',#145,#142,#91,.T.);
#158=EDGE_CURVE('',#142,#145,#92,.T.);
#159=EDGE_CURVE('',#144,#143,#93,.T.);
#160=EDGE_CURVE('',#146,#147,#219,.T.);
#161=EDGE_CURVE('',#148,#146,#94,.T.);
#162=EDGE_CURVE('',#148,#149,#220,.T.);
#163=EDGE_CURVE('',#149,#147,#95,.T.);
#164=EDGE_CURVE('',#147,#149,#96,.T.);
#165=EDGE_CURVE('',#146,#148,#97,.T.);
#166=EDGE_CURVE('',#148,#150,#221,.T.);
#167=EDGE_CURVE('',#150,#151,#98,.T.);
#168=EDGE_CURVE('',#146,#151,#222,.T.);
#169=EDGE_CURVE('',#151,#150,#99,.T.);
#170=EDGE_CURVE('',#152,#153,#100,.T.);
#171=EDGE_CURVE('',#153,#150,#223,.T.);
#172=EDGE_CURVE('',#152,#151,#224,.T.);
#173=EDGE_CURVE('',#153,#152,#101,.T.);
#174=CURVE_STYLE('',#192,POSITIVE_LENGTH_MEASURE(0.18),#191);
#175=CURVE_STYLE('',#193,POSITIVE_LENGTH_MEASURE(0.18),#191);
#176=CURVE_STYLE('',#194,POSITIVE_LENGTH_MEASURE(0.18),#191);
#177=CURVE_STYLE('',#195,POSITIVE_LENGTH_MEASURE(0.18),#191);
#178=CURVE_STYLE('',#196,POSITIVE_LENGTH_MEASURE(0.13),#300);
#179=CURVE_STYLE('',#197,POSITIVE_LENGTH_MEASURE(0.13),#300);
#180=CURVE_STYLE('',#198,POSITIVE_LENGTH_MEASURE(0.13),#300);
#181=CURVE_STYLE('',#199,POSITIVE_LENGTH_MEASURE(0.13),#299);
#182=CURVE_STYLE('',#200,POSITIVE_LENGTH_MEASURE(0.13),#299);
#183=CURVE_STYLE('',#201,POSITIVE_LENGTH_MEASURE(0.18),#300);
#184=CURVE_STYLE('',#202,POSITIVE_LENGTH_MEASURE(0.13),#299);
#185=CURVE_STYLE('',#203,POSITIVE_LENGTH_MEASURE(0.13),#300);
#186=CURVE_STYLE('',#204,POSITIVE_LENGTH_MEASURE(0.13),#300);
#187=CURVE_STYLE('',#205,POSITIVE_LENGTH_MEASURE(0.13),#300);
#188=CURVE_STYLE('',#206,POSITIVE_LENGTH_MEASURE(0.13),#299);
#189=CURVE_STYLE('',#207,POSITIVE_LENGTH_MEASURE(0.13),#300);
#190=CURVE_STYLE('',#208,POSITIVE_LENGTH_MEASURE(0.13),#300);
#191=DRAUGHTING_PRE_DEFINED_COLOUR('blue');
#192=DRAUGHTING_PRE_DEFINED_CURVE_FONT('continuous');
#193=DRAUGHTING_PRE_DEFINED_CURVE_FONT('continuous');
#194=DRAUGHTING_PRE_DEFINED_CURVE_FONT('continuous');
#195=DRAUGHTING_PRE_DEFINED_CURVE_FONT('continuous');
#196=DRAUGHTING_PRE_DEFINED_CURVE_FONT('continuous');
#197=DRAUGHTING_PRE_DEFINED_CURVE_FONT('continuous');
#198=DRAUGHTING_PRE_DEFINED_CURVE_FONT('continuous');
#199=DRAUGHTING_PRE_DEFINED_CURVE_FONT('continuous');
#200=DRAUGHTING_PRE_DEFINED_CURVE_FONT('continuous');
#201=DRAUGHTING_PRE_DEFINED_CURVE_FONT('continuous');
#202=DRAUGHTING_PRE_DEFINED_CURVE_FONT('continuous');
#203=DRAUGHTING_PRE_DEFINED_CURVE_FONT('continuous');
#204=DRAUGHTING_PRE_DEFINED_CURVE_FONT('continuous');
#205=DRAUGHTING_PRE_DEFINED_CURVE_FONT('continuous');
#206=DRAUGHTING_PRE_DEFINED_CURVE_FONT('continuous');
#207=DRAUGHTING_PRE_DEFINED_CURVE_FONT('continuous');
#208=DRAUGHTING_PRE_DEFINED_CURVE_FONT('continuous');
#209=TRIMMED_CURVE('',#213,(PARAMETER_VALUE(0.)),(PARAMETER_VALUE(1.)),
 .T.,.PARAMETER.);
#210=TRIMMED_CURVE('',#214,(PARAMETER_VALUE(0.)),(PARAMETER_VALUE(1.)),
 .T.,.PARAMETER.);
#211=TRIMMED_CURVE('',#215,(PARAMETER_VALUE(0.)),(PARAMETER_VALUE(1.)),
 .T.,.PARAMETER.);
#212=TRIMMED_CURVE('',#216,(PARAMETER_VALUE(0.)),(PARAMETER_VALUE(1.)),
 .T.,.PARAMETER.);
#213=LINE('',#435,#225);
#214=LINE('',#436,#226);
#215=LINE('',#437,#227);
#216=LINE('',#438,#228);
#217=LINE('',#452,#229);
#218=LINE('',#457,#230);
#219=LINE('',#466,#231);
#220=LINE('',#471,#232);
#221=LINE('',#479,#233);
#222=LINE('',#483,#234);
#223=LINE('',#490,#235);
#224=LINE('',#491,#236);
#225=VECTOR('',#343,6.);
#226=VECTOR('',#344,15.);
#227=VECTOR('',#345,6.);
#228=VECTOR('',#346,15.);
#229=VECTOR('',#373,1.);
#230=VECTOR('',#376,1.);
#231=VECTOR('',#391,1.);
#232=VECTOR('',#394,1.);
#233=VECTOR('',#407,1.);
#234=VECTOR('',#410,1.);
#235=VECTOR('',#419,1.);
#236=VECTOR('',#420,1.);
#237=PRESENTATION_LAYER_ASSIGNMENT('2','Layer 2',(#430,#431,#433,#307,#308,
#310));
#238=PRESENTATION_LAYER_ASSIGNMENT('3','Layer 3',(#432,#309));
#239=PRESENTATION_LAYER_ASSIGNMENT('1','Layer 1',(#434,#304,#305,#306,#311,
#312,#313,#314,#315,#316,#42,#43));
#240=PRESENTATION_LAYER_ASSIGNMENT('4','Layer 4',(#209,#210,#211,#212));
#241=STYLED_ITEM('',(#265),#430);
#242=STYLED_ITEM('',(#266),#431);
#243=STYLED_ITEM('',(#267),#432);
#244=STYLED_ITEM('',(#268),#433);
#245=STYLED_ITEM('',(#269),#434);
#246=STYLED_ITEM('',(#270),#209);
#247=STYLED_ITEM('',(#271),#210);
#248=STYLED_ITEM('',(#272),#211);
#249=STYLED_ITEM('',(#273),#212);
#250=STYLED_ITEM('',(#274),#304);
#251=STYLED_ITEM('',(#275),#305);
#252=STYLED_ITEM('',(#276),#306);
#253=STYLED_ITEM('',(#277),#307);
#254=STYLED_ITEM('',(#278),#308);
#255=STYLED_ITEM('',(#279),#309);
#256=STYLED_ITEM('',(#280),#310);
#257=STYLED_ITEM('',(#281),#311);
#258=STYLED_ITEM('',(#282),#312);
#259=STYLED_ITEM('',(#283),#313);
#260=STYLED_ITEM('',(#284),#314);
#261=STYLED_ITEM('',(#285),#315);
#262=STYLED_ITEM('',(#286),#316);
#263=STYLED_ITEM('',(#287),#42);
#264=STYLED_ITEM('',(#288),#43);
#265=PRESENTATION_STYLE_ASSIGNMENT((#289));
#266=PRESENTATION_STYLE_ASSIGNMENT((#290));
#267=PRESENTATION_STYLE_ASSIGNMENT((#291));
#268=PRESENTATION_STYLE_ASSIGNMENT((#292));
#269=PRESENTATION_STYLE_ASSIGNMENT((#293));
#270=PRESENTATION_STYLE_ASSIGNMENT((#174));
#271=PRESENTATION_STYLE_ASSIGNMENT((#175));
#272=PRESENTATION_STYLE_ASSIGNMENT((#176));
#273=PRESENTATION_STYLE_ASSIGNMENT((#177));
#274=PRESENTATION_STYLE_ASSIGNMENT((#178));
#275=PRESENTATION_STYLE_ASSIGNMENT((#179));
#276=PRESENTATION_STYLE_ASSIGNMENT((#180));
#277=PRESENTATION_STYLE_ASSIGNMENT((#181));
#278=PRESENTATION_STYLE_ASSIGNMENT((#182));
#279=PRESENTATION_STYLE_ASSIGNMENT((#183));
#280=PRESENTATION_STYLE_ASSIGNMENT((#184));
#281=PRESENTATION_STYLE_ASSIGNMENT((#185));
#282=PRESENTATION_STYLE_ASSIGNMENT((#186));
#283=PRESENTATION_STYLE_ASSIGNMENT((#187));
#284=PRESENTATION_STYLE_ASSIGNMENT((#188));
#285=PRESENTATION_STYLE_ASSIGNMENT((#189));
#286=PRESENTATION_STYLE_ASSIGNMENT((#190));
#287=PRESENTATION_STYLE_ASSIGNMENT((#32));
#288=PRESENTATION_STYLE_ASSIGNMENT((#33));
#289=POINT_STYLE('',#294,POSITIVE_LENGTH_MEASURE(3.),#299);
#290=POINT_STYLE('',#295,POSITIVE_LENGTH_MEASURE(3.),#299);
#291=POINT_STYLE('',#296,POSITIVE_LENGTH_MEASURE(3.),#300);
#292=POINT_STYLE('',#297,POSITIVE_LENGTH_MEASURE(3.),#299);
#293=POINT_STYLE('',#298,POSITIVE_LENGTH_MEASURE(3.),#299);
#294=PRE_DEFINED_POINT_MARKER_SYMBOL('plus');
#295=PRE_DEFINED_POINT_MARKER_SYMBOL('plus');
#296=PRE_DEFINED_POINT_MARKER_SYMBOL('plus');
#297=PRE_DEFINED_POINT_MARKER_SYMBOL('plus');
#298=PRE_DEFINED_POINT_MARKER_SYMBOL('plus');
#299=COLOUR_RGB('Medium Umber',0.372533760585946,0.313725490196078,0.270572976272221);
#300=COLOUR_RGB('Strong Stone',0.576470588235294,0.54508278019379,0.392156862745098);
#301=COLOUR_RGB('Light Gray',0.8,0.8,0.8);
#302=COLOUR_RGB('non-cutting part and shank',0.501960784313725,0.501960784313725,
0.501960784313725);
#303=AXIS2_PLACEMENT_3D('',#429,#341,#342);
#304=AXIS2_PLACEMENT_3D('',#439,#347,#348);
#305=AXIS2_PLACEMENT_3D('',#440,#349,#350);
#306=AXIS2_PLACEMENT_3D('',#441,#351,#352);
#307=AXIS2_PLACEMENT_3D('CIP',#442,#353,#354);
#308=AXIS2_PLACEMENT_3D('PCS',#443,#355,#356);
#309=AXIS2_PLACEMENT_3D('MCS',#444,#357,#358);
#310=AXIS2_PLACEMENT_3D('STEP_TEMP_EM9_1',#445,#359,#360);
#311=AXIS2_PLACEMENT_3D('',#446,#361,#362);
#312=AXIS2_PLACEMENT_3D('',#447,#363,#364);
#313=AXIS2_PLACEMENT_3D('',#448,#365,#366);
#314=AXIS2_PLACEMENT_3D('STEP_TEMP_EM9_2',#449,#367,#368);
#315=AXIS2_PLACEMENT_3D('',#450,#369,#370);
#316=AXIS2_PLACEMENT_3D('',#451,#371,#372);
#317=AXIS2_PLACEMENT_3D('',#455,#374,#375);
#318=AXIS2_PLACEMENT_3D('',#459,#377,#378);
#319=AXIS2_PLACEMENT_3D('',#460,#379,#380);
#320=AXIS2_PLACEMENT_3D('',#461,#381,#382);
#321=AXIS2_PLACEMENT_3D('',#462,#383,#384);
#322=AXIS2_PLACEMENT_3D('',#463,#385,#386);
#323=AXIS2_PLACEMENT_3D('',#464,#387,#388);
#324=AXIS2_PLACEMENT_3D('',#465,#389,#390);
#325=AXIS2_PLACEMENT_3D('',#469,#392,#393);
#326=AXIS2_PLACEMENT_3D('',#473,#395,#396);
#327=AXIS2_PLACEMENT_3D('',#474,#397,#398);
#328=AXIS2_PLACEMENT_3D('',#475,#399,#400);
#329=AXIS2_PLACEMENT_3D('',#476,#401,#402);
#330=AXIS2_PLACEMENT_3D('',#477,#403,#404);
#331=AXIS2_PLACEMENT_3D('',#478,#405,#406);
#332=AXIS2_PLACEMENT_3D('',#481,#408,#409);
#333=AXIS2_PLACEMENT_3D('',#484,#411,#412);
#334=AXIS2_PLACEMENT_3D('',#485,#413,#414);
#335=AXIS2_PLACEMENT_3D('',#486,#415,#416);
#336=AXIS2_PLACEMENT_3D('',#487,#417,#418);
#337=AXIS2_PLACEMENT_3D('',#492,#421,#422);
#338=AXIS2_PLACEMENT_3D('',#493,#423,#424);
#339=AXIS2_PLACEMENT_3D('',#494,#425,#426);
#340=AXIS2_PLACEMENT_3D('',#495,#427,#428);
#341=DIRECTION('',(0.,0.,1.));
#342=DIRECTION('',(1.,0.,0.));
#343=DIRECTION('',(-1.,0.,0.));
#344=DIRECTION('',(0.,0.,1.));
#345=DIRECTION('',(1.,0.,0.));
#346=DIRECTION('',(0.,0.,-1.));
#347=DIRECTION('',(0.,0.,1.));
#348=DIRECTION('',(1.,0.,0.));
#349=DIRECTION('',(0.,0.,1.));
#350=DIRECTION('',(1.,0.,0.));
#351=DIRECTION('',(0.,0.,1.));
#352=DIRECTION('',(1.,0.,0.));
#353=DIRECTION('',(0.,0.,1.));
#354=DIRECTION('',(1.,0.,0.));
#355=DIRECTION('',(0.,0.,1.));
#356=DIRECTION('',(1.,0.,0.));
#357=DIRECTION('',(0.,0.,1.));
#358=DIRECTION('',(1.,0.,0.));
#359=DIRECTION('',(0.,0.,1.));
#360=DIRECTION('',(1.,0.,0.));
#361=DIRECTION('',(0.,0.,1.));
#362=DIRECTION('',(1.,0.,0.));
#363=DIRECTION('',(0.,0.,1.));
#364=DIRECTION('',(1.,0.,0.));
#365=DIRECTION('',(0.,0.,1.));
#366=DIRECTION('',(1.,0.,0.));
#367=DIRECTION('',(0.,0.,1.));
#368=DIRECTION('',(1.,0.,0.));
#369=DIRECTION('',(0.,0.,1.));
#370=DIRECTION('',(1.,0.,0.));
#371=DIRECTION('',(0.,0.,1.));
#372=DIRECTION('',(1.,0.,0.));
#373=DIRECTION('',(0.,0.,-1.));
#374=DIRECTION('',(0.,0.,1.));
#375=DIRECTION('',(0.,-1.,0.));
#376=DIRECTION('',(0.,0.,-1.));
#377=DIRECTION('',(0.,0.,-1.));
#378=DIRECTION('',(0.,1.,0.));
#379=DIRECTION('',(0.,0.,-1.));
#380=DIRECTION('',(0.,1.,0.));
#381=DIRECTION('',(0.,0.,-1.));
#382=DIRECTION('',(0.,-1.,0.));
#383=DIRECTION('',(0.,0.,-1.));
#384=DIRECTION('',(1.,0.,0.));
#385=DIRECTION('',(0.,0.,1.));
#386=DIRECTION('',(0.,1.,0.));
#387=DIRECTION('',(0.,0.,-1.));
#388=DIRECTION('',(0.,1.,0.));
#389=DIRECTION('',(0.,0.,-1.));
#390=DIRECTION('',(0.,1.,0.));
#391=DIRECTION('',(0.,0.707106781186547,-0.707106781186547));
#392=DIRECTION('',(0.,0.,1.));
#393=DIRECTION('',(0.,-1.,0.));
#394=DIRECTION('',(0.,-0.707106781186547,-0.707106781186547));
#395=DIRECTION('',(0.,0.,1.));
#396=DIRECTION('',(0.,-1.,0.));
#397=DIRECTION('',(0.,0.,-1.));
#398=DIRECTION('',(0.,1.,-4.14056324449959E-17));
#399=DIRECTION('',(0.,0.,1.));
#400=DIRECTION('',(0.,1.,0.));
#401=DIRECTION('',(0.,0.,1.));
#402=DIRECTION('',(-1.,0.,0.));
#403=DIRECTION('',(0.,0.,1.));
#404=DIRECTION('',(0.,1.,0.));
#405=DIRECTION('',(0.,0.,-1.));
#406=DIRECTION('',(0.,1.,-4.14056324449959E-17));
#407=DIRECTION('',(0.,0.,1.));
#408=DIRECTION('',(0.,0.,-1.));
#409=DIRECTION('',(0.,-1.,0.));
#410=DIRECTION('',(0.,0.,1.));
#411=DIRECTION('',(0.,0.,-1.));
#412=DIRECTION('',(0.,1.,0.));
#413=DIRECTION('',(0.,0.,-1.));
#414=DIRECTION('',(0.,1.,0.));
#415=DIRECTION('',(0.,0.,-1.));
#416=DIRECTION('',(0.,1.,0.));
#417=DIRECTION('',(0.,0.,-1.));
#418=DIRECTION('',(0.,1.,0.));
#419=DIRECTION('',(0.,-0.707106781186547,-0.707106781186547));
#420=DIRECTION('',(0.,0.707106781186547,-0.707106781186547));
#421=DIRECTION('',(0.,0.,-1.));
#422=DIRECTION('',(0.,1.,-4.14365398591126E-17));
#423=DIRECTION('',(0.,0.,-1.));
#424=DIRECTION('',(0.,-1.,0.));
#425=DIRECTION('',(0.,0.,-1.));
#426=DIRECTION('',(0.,1.,-4.14365398591126E-17));
#427=DIRECTION('',(0.,0.,-1.));
#428=DIRECTION('',(0.,1.,0.));
#429=CARTESIAN_POINT('',(0.,0.,0.));
#430=CARTESIAN_POINT('',(0.,0.,0.));
#431=CARTESIAN_POINT('',(0.,0.,50.));
#432=CARTESIAN_POINT('',(0.,0.,20.));
#433=CARTESIAN_POINT('',(0.,0.,0.));
#434=CARTESIAN_POINT('',(0.,0.,0.));
#435=CARTESIAN_POINT('',(0.,0.,0.));
#436=CARTESIAN_POINT('',(-6.,0.,0.));
#437=CARTESIAN_POINT('',(-6.,0.,15.));
#438=CARTESIAN_POINT('',(0.,0.,15.));
#439=CARTESIAN_POINT('',(0.,0.,0.));
#440=CARTESIAN_POINT('',(0.,0.,0.));
#441=CARTESIAN_POINT('',(0.,0.,0.));
#442=CARTESIAN_POINT('',(0.,0.,0.));
#443=CARTESIAN_POINT('',(0.,0.,50.));
#444=CARTESIAN_POINT('',(0.,0.,20.));
#445=CARTESIAN_POINT('',(0.,0.,0.));
#446=CARTESIAN_POINT('',(0.,0.,0.));
#447=CARTESIAN_POINT('',(0.,0.,0.));
#448=CARTESIAN_POINT('',(0.,0.,0.));
#449=CARTESIAN_POINT('',(0.,0.,0.));
#450=CARTESIAN_POINT('',(0.,0.,0.));
#451=CARTESIAN_POINT('',(0.,0.,0.));
#452=CARTESIAN_POINT('',(0.,-6.,15.));
#453=CARTESIAN_POINT('',(0.,-6.,15.));
#454=CARTESIAN_POINT('',(0.,-6.,0.));
#455=CARTESIAN_POINT('',(0.,0.,0.));
#456=CARTESIAN_POINT('',(0.,6.,0.));
#457=CARTESIAN_POINT('',(0.,6.,15.));
#458=CARTESIAN_POINT('',(0.,6.,15.));
#459=CARTESIAN_POINT('',(0.,0.,15.));
#460=CARTESIAN_POINT('',(0.,0.,52.5));
#461=CARTESIAN_POINT('',(0.,0.,15.));
#462=CARTESIAN_POINT('',(150.,150.,15.));
#463=CARTESIAN_POINT('',(0.,0.,0.));
#464=CARTESIAN_POINT('',(0.,0.,52.5));
#465=CARTESIAN_POINT('',(0.,0.,0.));
#466=CARTESIAN_POINT('',(0.,5.,16.));
#467=CARTESIAN_POINT('',(0.,5.,16.));
#468=CARTESIAN_POINT('',(0.,6.,15.));
#469=CARTESIAN_POINT('',(0.,0.,16.));
#470=CARTESIAN_POINT('',(0.,-5.,16.));
#471=CARTESIAN_POINT('',(0.,-5.,16.));
#472=CARTESIAN_POINT('',(0.,-6.,15.));
#473=CARTESIAN_POINT('',(0.,0.,15.));
#474=CARTESIAN_POINT('',(0.,0.,15.5));
#475=CARTESIAN_POINT('',(0.,0.,15.));
#476=CARTESIAN_POINT('',(-150.,150.,15.));
#477=CARTESIAN_POINT('',(0.,0.,16.));
#478=CARTESIAN_POINT('',(0.,0.,15.5));
#479=CARTESIAN_POINT('',(0.,-5.,49.5));
#480=CARTESIAN_POINT('',(0.,-5.,49.5));
#481=CARTESIAN_POINT('',(0.,0.,49.5));
#482=CARTESIAN_POINT('',(0.,5.,49.5));
#483=CARTESIAN_POINT('',(0.,5.,49.5));
#484=CARTESIAN_POINT('',(0.,0.,52.5));
#485=CARTESIAN_POINT('',(0.,0.,49.5));
#486=CARTESIAN_POINT('',(0.,0.,52.5));
#487=CARTESIAN_POINT('',(0.,0.,50.));
#488=CARTESIAN_POINT('',(0.,4.5,50.));
#489=CARTESIAN_POINT('',(0.,-4.5,50.));
#490=CARTESIAN_POINT('',(0.,-4.5,50.));
#491=CARTESIAN_POINT('',(0.,4.5,50.));
#492=CARTESIAN_POINT('',(0.,0.,49.75));
#493=CARTESIAN_POINT('',(0.,0.,50.));
#494=CARTESIAN_POINT('',(0.,0.,49.75));
#495=CARTESIAN_POINT('',(0.,0.,50.));
#496=MECHANICAL_DESIGN_GEOMETRIC_PRESENTATION_REPRESENTATION('',(#241,#242,
#243,#244,#245,#246,#247,#248,#249,#250,#251,#252,#253,#254,#255,#256,#257,
#258,#259,#260,#261,#262,#263,#264),#497);
#497=(
GEOMETRIC_REPRESENTATION_CONTEXT(3)
GLOBAL_UNCERTAINTY_ASSIGNED_CONTEXT((#498))
GLOBAL_UNIT_ASSIGNED_CONTEXT((#504,#500,#499))
REPRESENTATION_CONTEXT('MP3ESD1200S10','TOP_LEVEL_ASSEMBLY_PART')
);
#498=UNCERTAINTY_MEASURE_WITH_UNIT(LENGTH_MEASURE(2.E-5),#504,
'DISTANCE_ACCURACY_VALUE','Maximum Tolerance applied to model');
#499=(
NAMED_UNIT(*)
SI_UNIT($,.STERADIAN.)
SOLID_ANGLE_UNIT()
);
#500=(
CONVERSION_BASED_UNIT('DEGREE',#502)
NAMED_UNIT(#501)
PLANE_ANGLE_UNIT()
);
#501=DIMENSIONAL_EXPONENTS(0.,0.,0.,0.,0.,0.,0.);
#502=PLANE_ANGLE_MEASURE_WITH_UNIT(PLANE_ANGLE_MEASURE(0.0174532925),#503);
#503=(
NAMED_UNIT(*)
PLANE_ANGLE_UNIT()
SI_UNIT($,.RADIAN.)
);
#504=(
LENGTH_UNIT()
NAMED_UNIT(*)
SI_UNIT(.MILLI.,.METRE.)
);
ENDSEC;
END-ISO-10303-21;
